Король и Шут - Забытые ботинки, аккорды

Прокрутка
Тональность
Шрифт
100
Intro:
1|----------3----5-5---------------|3-1----------3-1---------|
2|3---3-6---------------5-5--------|3---3--------3----3------|
3|--3---------3-------5--------5-5-|2-----2--0--2------2-0---|
4|---------------------------------|0---------0--0--------0--|
5|---------------------------------|----------2------------2-|
6|3-----------------5---------5----|----------3------------3-|

1|----------3----5-5---------------|3-1-----------3-1-------|--------0----0--------5-|
2|3---3-6---------------5-5--------|3---3---------3--3------|6/3---3----3-------6----|
3|--3---------3-------5--------5-5-|2-----2---0--2----2-0---|-------2----2--5/7------|
4|---------------------------------|0---------0--0-------0--|0----0---0--------------|
5|---------------------------------|----------2-----------2-|------------------------|
6|3-----------------5---------5----|----------3-----------3-|------------------------|

  Dm                                 Gm7 Am7    
Уставшим путником войду в твою я спальню.
         Dm                  Gm7  Dm Am7 Dm
Без приглашения, тайком, без лишних слов.
  Dm                         Gm7 Am7    
Возле тебя я сяду тихо на диване
         Dm                Gm7 Dm Am7 Dm
И пожелаю необычных, сладких снов.

   F           C    Gm           Dm
Зажгу свечу я, но будить тебя не стану,
   F         C            A   
Не отрываясь буду пристально смотреть.
  Dm           Gm           C         F
И этот миг мне силы даст, залечит мои раны,
  Dm        Gm7             Dm Am7 Dm
И он сумеет сердце мне согреть.

F       Gm     Am        Dm   Gm      Am Dm      
Дальний путь зовет меня, но уйти я не могу,
F       Gm     Am        Dm   Gm      Am Dm     
Возвращаюсь снова я, твой облик в сердце берегу.

  Dm                            Gm7 Am7    
А в полночь выйду я на лунную дорогу,
         Dm                  Gm7 Dm Am7 Dm
Простившись навсегда с любимою своей
  Dm                         Gm7 Am7   
Тоска оставь меня глупа ты и убога.
         Dm                  Gm7 Dm Am7 Dm
Ты не подруга светлой памяти моей.

   F           C    Gm           Dm
Когда проснешься ты, найдешь мои ботинки
   F         C            A   
Те, что случайно я оставил у тебя
  Dm           Gm           C         F
А в чем ушел же он? себя ты спросишь тихо.
  Dm        Gm7             Dm Am7 Dm
В чем я ушел? И сам того не знаю я!

F       Gm     Am        Dm   Gm      Am Dm      
Дальний путь зовет меня, но уйти я не могу,
F       Gm     Am        Dm   Gm      Am Dm     
Возвращаюсь снова я, твой облик в сердце берегу.

  Dm                          Gm7 Am7    
Босые ноги возвратят меня обратно.
         Dm                  Gm7 Dm Am7 Dm
Куда деваться - отморожена ступня!
  Dm                         Gm7 Am7   
Мне быть навязчивым не очень - то приятно,
         Dm                  Gm7 Dm Am7 Dm
Возьму ботинки и уйду тотчас же я.

   F           C    Gm           Dm
И вновь иду задумчивый по лунной я дороге,
   F         C            A   
И дом твой вновь остался за моей спиной.
  Dm           Gm           C       F
Ботинки на ногах, но мерзнут мои ноги...
  Dm        Gm7             Dm Am7 Dm
Забыл штаны... о нет... о боже мой!

F       Gm     Am        Dm   Gm      Am Dm      
Дальний путь зовет меня, но уйти я не могу,
F       Gm     Am        Dm   Gm      Am Dm     
Возвращаюсь снова я, твой облик в сердце берегу.
 
 

Видео