Король и Шут - Гробовщик, аккорды

Прокрутка
Тональность
Шрифт
100
Вступление и 1 и 2 куплеты:
|-----------------------|-----------------------|
|-----------------------|-----------------------|
|-----------------------|-----------------------|
|-------------9----9----|-------------9----9----|
|-------5/----7----7----|-------5/----7----7----|
|--7--------------------|--7--------------------|
   
|-----------------------|-----------------------|
|-----------------------|-----------------------|
|-----------------------|-----------------------|
|-----------------------|-----------------------|
|--5/----7----9----9----|--5/----7----9----9----|
|-------------7----7----|-------------7----7----|

Мы прощались на пароме, 
Прохрипел мне ямщик: 
"У погоста в дряхлом доме 
дед живёт - гробовщик. 

G                           F#
Год назад его нечистый дух попутал,
G                   A
Его рассудок мрак окутал

Далее как первая часть куплета:
|-----------------------|-----------------------|
|-----------------------|-----------------------|
|-----------------------|-----------------------|
|-------------9----9----|-------------9----9----|
|-------5/----7----7----|-------5/----7----7----|
|--7--------------------|--7--------------------|
   
|-----------------------|-----------------------|
|-----------------------|-----------------------|
|-----------------------|-----------------------|
|-----------------------|-----------------------|
|--5/----7----9----9----|--5/----7----9----9----|
|-------------7----7----|-------------7----7----|

На прохожих стал кидаться 
И детей их пугать, 
И над верой насмехаться, 
Род людской презирать. 

G                           F#
Если вам он среди ночи попадётся, 
G                   A
Ей Богу, тяжко вам придётся". 

Припев:
G                     E
А в деревне гробовая тишина,
F#                    B
Как будто вымер весь народ.
G                     E
Странная молитва с кладбища слышна,
F#                    B
Из дома, где старик живет.
G       F#
О чём поет?
G       A
Кого завет?

Куплет 2:
|-----------------------|-----------------------|
|-----------------------|-----------------------|
|-----------------------|-----------------------|
|-------------9----9----|-------------9----9----|
|-------5/----7----7----|-------5/----7----7----|
|--7--------------------|--7--------------------|
   
|-----------------------|-----------------------|
|-----------------------|-----------------------|
|-----------------------|-----------------------|
|-----------------------|-----------------------|
|--5/----7----9----9----|--5/----7----9----9----|
|-------------7----7----|-------------7----7----|

Обнаружил я случайно 
На земле кол и крест. 
Что за Дьявольская тайна 
Этих зловещих мест? 

G                           F#
Во гробах лежали люди будто в коме - 
G                   A
Одно и то же, в каждом доме. 

Припев:
G                     E
А в деревне гробовая тишина,
F#                    B
Как будто вымер весь народ.
G                     E
Странная молитва с кладбища слышна,
F#                    B
Из дома, где старик живет.
G       F#
О чём поет?
G       A
Кого завет?

  G                     Em
Сумерки сгущались, и в какой-то миг
  F#              Bm
Похолодела кровь моя.
  G                     Em
В воздухе завис над кладбищем старик,
  F#              Bm
И шорохи услышал я.

 G                     Em
Что-то на латыни резко он сказал,
  F#              Bm
Гробы открылись в полумгле.
 G                     Em
В сторону мою рукой он указал,
 F#                 G
И тени двинулись ко мне.

Припев:
G                     E
А в деревне гробовая тишина
F#                    B
Как будто вымер весь народ
G                     E
Странная молитва с кладбища слышна
F#                    B
Из дома где старик живет
G       F#
О чем поет
G       A
Кого завет
 
 
Свернуть Распечатать

Видео