Король и Шут - Волосокрад, аккорды

Прокрутка
Тональность
Шрифт
100
Вступление: A  F#m  A  F#m 

 E |-------------------------------
 B |-----5-5-2-2---------2---------
 G |-2-2---------4-4-2-4-----------
 D |-----------------------4-4-2-4-

 E |-----------------
 B |-------------2---
 G |-2-2-4-4-2-4-----
 D |---------------4-

 E |-------------
 B |-------------
 G |-2/4⁄2-2/4⁄2-
 D |-------------

 A 
"Хей, друг, что за горе
  F#m 
Постигло ваши края?
 A 

Что за зло на воле?" -
    F#m 
Спросил трактирщика я.

     Bm              C 
В зловещем тумане он жертву находит,

   G               A 
Он тихо крадется у вас за спиной.
И, глядя, как с вами беда происходит,
Он дико смеется и брызжет слюной!

"Жить нам стало худо -
Исчезла вся молодежь.
Уезжай скорее отсюда,
Ты здесь лишь гибель найдешь!"

В зловещем тумане он жертву находит,
Он тихо крадется у вас за спиной.
И, глядя, как с вами беда происходит,
Он дико смеется и брызжет слюной.

   A6 B6            A6 B6  
 E |------------------------------
 B |-2-4--4--2/4⁄2--2-4--4--2/4⁄2-
 G |------------------------------

    A               F#m 
 E |-5-5-5-5-4-4-4-4-2-2-2-2---------
 B |-------------------------5-5-5-5-
 G |---------------------------------

    E 
 E |--------------------------------------
 B |-9--777-555-5-7-7-9--777-555-5-7-7----  (555 - тремоло)
 G |-----------------------------------9~-

Не зря трактирщик распинался,
Он, гад, служил сатане.
Сзади тихо черт подкрался -
Вцепился в волосы мне.

  A 
Услышав чертов мерзкий голос,
 F#m 
Ему с размаху в рыло дал.
Но, теряя каждый волос,
Год жизни я терял!

В зловещем тумане он жертву находит,
Он тихо крадется у вас за спиной.
И, глядя, как с вами беда происходит,
Он дико смеется и брызжет слюной!

  G                  Em 
Теперь, я знаю, у чертей полно идей,
Коварством, хитростью свою быль добывают,
Но хуже нам, когда среди людей
У них сообщники бывают.
 
 

Видео