Король и Шут - Водяной, аккорды

Прокрутка
Тональность
Шрифт
100
Куплет:
E|---------------|------------|------|
B|---------------|------------|------|
G|---------------|-4-------7--|------|
D|-7------5------|-4-------7--|-7--5-|
A|-7------5------|-2-------5--|-7--5-| 
E|-5------3------|------------|-5--3-| 1-й половины куплета
В лесном - лучах  С охоты - плечах

Припев:
E|--------------------|
B|--------------------|
G|--------------------|
D|--7-----5-----------| х4
A|--7-----5-----------|
E|--5-----3-----------|
Освежает иногда...

E|-2--2----2-----2-|
B|-3--4----2-----3-|
G|-3--3----3-----3-|
D|-3--3----4-----3-|
A|-2--2----4-----2-|
E|-2--2----2-----2-|
 
 

Видео