Король и Шут - Кукла колдуна, аккорды

Прокрутка
Тональность
Шрифт
100
Проигрыш: Am Dm7 E
3)-----------------------------------------
4)------------------------8-7-7-3-3p-8-7-2-
5)-8-7-7-5-5-8-7-5p-5-7-8------------------
6)-----------------------------------------
 
Am         C     Dm      E
Тёмный мрачный коридор, я на цыпочках как вор
Am         C     Dm      E
Пробираюсь чуть дыша, чтобы не вспугнуть
Am         C     Dm      E
Тех, кто спит уже давно, тех, кому не всё равно
Am         C     Dm      E
В чью я комнату тайком желаю заглянуть,
Dm       E
Что бы увидеть

Припев:
  Am
  Как бессонница в час ночной
       Dm       E
  Меняет, нелюдимая, облик твой,
  Am
  Чьих невольница ты идей,
       Dm       E
  Зачем тебе охотиться на людей?

Проигрыш: x2
Am Dm7 E
3)-----------------------------------------
4)------------------------8-7-7-3-3p-8-7-2-
5)-8-7-7-5-5-8-7-5p-5-7-8------------------
6)-----------------------------------------

Am         C     Dm      E
Крестик на моей груди, на него ты погляди,
Am         C     Dm      E
Что в тебе способен он резко изменить,
Am         C     Dm      E
Много книжек я читал, много фокусов видал,
Am         C     Dm      E
Свою тайну от меня не пытайся скрыть, 
Dm       E
я это видел

Припев:
  Am
  Как бессонница в час ночной
       Dm       E
  Меняет, нелюдимая, облик твой,
  Am
  Чьих невольница ты идей,
       Dm       E
  Зачем тебе охотиться на людей?

Am         C     Dm      E
Очень жаль, что ты тогда мне поверить не смогла
Am         C     Dm      E
В то, что новый твой приятель не такой как все.
Am         C     Dm      E
Ты осталась с ним вдвоём, не зная ничего о нём,
Am         C     Dm      E
Что для всех опасен он, наплевать тебе, 
Dm       E
и ты попала

Припев: 
  Am
К настоящему колдуну, 
       Dm       E
Он загубил таких как ты, не одну! 
  Am
Словно куклой, в час ночной 
       Dm       E
Теперь он может управлять тобой!
  Am
Всё происходит, как в страшном сне,
       Dm       E
И находиться здесь опасно мне. 

Проигрыш: x4
Am Dm7 E
3)-----------------------------------------
4)------------------------8-7-7-3-3p-8-7-2-
5)-8-7-7-5-5-8-7-5p-5-7-8------------------
6)-----------------------------------------
 
 
Свернуть Распечатать

Видео