Король и Шут - Воспоминания о былой любви (соло), аккорды

Прокрутка
Тональность
Шрифт
100
e||-------------|--0-----------0----------|--0--------------0-|
B||-------------|--0--0-----0-----0-----0-|--0--------------0-|
G||-------------|--------0-----------0----|--2--2-------------|
D||-----1--2--4-|-------------------------|-------------------|
A||-2--4--------|-------------------------|--0----------------|
E||-------------|--0----------------------|-------------------|

|-2--------2-3--2---0-|-3-----------------|-0--------0--------|
|-3-----3-------------|-0-----0--0--1---3-|-1----1--------1---|
|-2--2----------------|-0--0--------------|-0-0----0---0----0-|
|-0-------------------|-------------------|-------------------|
|---------------------|-2-----------------|-3-----------------|
|---------------------|-------------------|-------------------|

|-0----------0---------|-2-----------2----|-2-||
|-1----1-----------1---|-0-----0----------|-0-||
|-2-2-----2-----2----2-|-2--2-----2-----2-|-2-||
|----------------------|------------------|---||
|-0--------------------|-2----------------|-2-||
|----------------------|------------------|---||

||---------------|-0-----------0------|-0--------------0-|
||---------------|-0--0-----0----0----|-1-----1--1--3----|
||---------------|-------0----------0-|-2--2-------------|
||-------1--2--4-|--------------------|------------------|
||-2--4----------|--------------------|-0----------------|
||---------------|-0------------------|------------------|

|-2--------2-3--2--0-|-3-----------------|-0-----------0----------||
|-3-----3------------|-0-----0--0--1---3-|-1-----1-----------1----||
|-2--2---------------|-0--0--------------|-0--0-----0-----0-----0-||
|-0------------------|-------------------|------------------------||
|--------------------|-2-----------------|-3----------------------||
|--------------------|-------------------|------------------------||

|-0-----------0----------|-2-----------2----------|--2--||
|-1-----1-----------1----|-0-----0-----------0----|--0--||
|-2--2-----2-----2-----2-|-2--2-----2-----2-----2-|--2--||
|------------------------|------------------------|-----||
|-0----------------------|-2----------------------|--2--||
|------------------------|------------------------|-----||

||---------0--3--0-------|----------0--3--0-------|----------2-3--2--0--------|
||------0-----------0----|-------1-----------1----|-------3--------------3----|
||---0-----------------0-|----2-----------------2-|----2--------------------2-|
||-----------------------|------------------------|-0-------------------------|
||-----------------------|-0----------------------|---------------------------|
||-0---------------------|------------------------|---------------------------|

|------------3----------|----------0--3--0-------|----------0--3--0-------|
|------0--------0-------|-------1-----------1----|-------1-----------1----|
|---0-----0--------0----|----0-----------------0-|----2-----------------2-|
|---------------------0-|------------------------|------------------------|
|-----------------------|-3----------------------|-0----------------------|
|-3---------------------|------------------------|------------------------|

|--------------2----------|------------2----------||
|--------0--------0-------|---------------0-------||
|-----2-----2--------2----|-------0----------2----||
|-----------------------1-|----2----2-----------1-||
|-2-----------------------|-2---------------------||
|-------------------------|-----------------------||
 
 
Свернуть Распечатать

Видео