Король и Шут - Сапоги мертвеца, аккорды

Прокрутка
Тональность
Шрифт
100
Intro: 
  A5       C5       D5       E5       Guitar|	
					     |  2x
A|--------|33333333|55555555|77777777|  Bass |
E|55555555|--------|--------|--------|       |

Bass:
A|--------|--------|55555555|77777777|
E|55555555|55555555|--------|--------|

Guitar:           E|--------|--------|
  A5              B|-6--5---|--------|
                  G|--------|-7-5-4--|

Пьяный дровосек тащился по лесу,
Встали у него вдруг дыбом волосы.
Увидел он мертвеца в траве некошеной
В новых сапогах, почти не ношенных.

Bass:
A|--------|55555555|--------|--------|
E|11111111|--------|55555555|55555555|

Guitar:		  A|-------55-77-------55-77-| 
  F5       D5     E|-55-88-------55-88-------|
  Эх, я возьму их себе. 

Bass:
A|--------|55555555|--------|--------|
E|11111111|--------|55555555|55555555|

Guitar:
  F5       D5       A5 A5
  Как они будут на мне?

Bass:
E|55555555|33333333|

     A5           G5
И пришел он радостный домой:

Bass:
A|55555555|--------|
E|--------|55555555|
      D5		  A5
Поскорей, сестра, мне дверь открой!
      D5		A5
Посмотри что на моих ногах,
      D5		A5
Посмотри, в каких я сапогах!

  A5       C5       D5       E5        Guitar|	
					     |  2x
A|--------|33333333|55555555|77777777|  Bass |
E|55555555|--------|--------|--------|       |

Радуется брат,
Сестра тревожится.
Наступает ночь - она все молится:
Не могу уснуть, болит головушка!
Принесет беду твоя обновушка,

  Зря братец снял сапоги
  С мертвой холодной ноги!

И раздался голос за окном:
Открывай мужик мне дверь добром!
Я пришел обратно получить
То, что смел ты утром утащить!

И раздался голос за окном:
"Открывай мужик мне дверь добром!"
А мужик схватился за топор
И проворно выбежал во двор.

Дровосек избегал все вокруг,
Никого не встретил он и вдруг
Вдруг увидел дома на полу
В сапогах убитую сестру...

Bass:
A|----------|-33333333-|-55555555-|-88888888-|  |
E|-55555555-|----------|----------|----------|  |
						|  
Guitar:						| 2x
  A5         C5         D5         F5           |
E|----------|----------|----------|-12-------|  |
H|-10-------|-8--------|-10-------|----------|  |

Bass:
A|--------|-33---------|  |	    A|-3--|
E|-55-----|------------|  |	    E|----|
			  |  
Guitar:                   |  2x
  A5        C5		  |           C5
G|----9---|------12----|  |	    G|-12-|
D|-77---7-|-1010----10-|  |	    D|-10-|
 
 

Видео