Король и Шут - Мастер приглашает в гости, аккорды

Прокрутка
Тональность
Шрифт
100
Вступление:

Скрипка:
 E|--------------------------------------------------------|
 B|--9--7-9-10~~-----7-9~~-7-9-10~-------------------------|
 G|----------------9---------------------------------------|
 D|--------------------------------------------------------|
 A|--------------------------------------------------------|
 E|--------------------------------------------------------|

Гитара:
 E|--------------------------------------------------------|
 B|--------------------------------------------------------|
 G|------------------------------4-4-2-1-2-4---------------|
 D|--2-------2-2-------2-4-2-1-2---------------------------|
 A|----4-2-4-----4-2-4-------------------------------------|
 E|--------------------------------------------------------|
  |
  |(2) pm--------------------------------------|
 E|---------------------------------------------------------|
 B|---------------------------------------------------------|
 G|------2--4-----------------------------------------------|
 D|--2---2--4-----------------------------------------------|
 A|--2---0--2-----------------------------------------------|
 E|--0------------------------------------------------------|
  
Куплет:                                          pm-   pm-
 E|-----------------------------------------------------------|
 B|-----------------------------------------------------------|
 G|---6-6-------------4-4---6-5-------------------------------|
 D|---6-6-----7-6-----4-4---6-5----------------------6-----6--|
 A|---4-4-----7-6-----2-2---4-3----------------------6-----6--|
 E|-----------5-4--------------------------------4-4-4-4-4-4--|

C#m       B  A  B          A G#m
Вечером к столу мастер пригласил
C#m     B  A  B      A G#m
Верного слугу и его спросил -
         C#m                A
"Сколько раз ты, встречая моих гостей,
    E              G#           C#m
никого никогда за дверь не провожал?
        A             E         G#
И ты поймешь теперь, что я в тайне держал.

Припев:
 E|---------------------------------------------------------|
 B|---------------------------------------------------------|
 G|--6---2--(1)---------------------------------------------|
 D|--6---2---2---6------------------------------------------|
 A|--4---0---2---6------------------------------------------|
 E|----------0---4------------------------------------------|

  C#m     A         E        G#
В те дни, когда я в настроении бываю,
C#m  A       E        G#
Сидя у огня, черепа перебираю".

Проигрыш:
 E|------------------------------------------------------------------|
 B|------------------------------------------------------------------|
 G|--6---2--(1)------------------------------------------------------|
 D|--6---2---2---6---------------------------------------------------|
 A|--4---0---2---6------------------0-4-3------------0-4-3-----------|
 E|----------0---4------------------------4--3р4-3р4-------4---------|
 
Куплет:                                          pm-   pm-
 E|-----------------------------------------------------------|
 B|-----------------------------------------------------------|
 G|---6-6-------------4-4---6-5-------------------------------|
 D|---6-6-----7-6-----4-4---6-5----------------------6-----6--|
 A|---4-4-----7-6-----2-2---4-3----------------------6-----6--|
 E|-----------5-4--------------------------------4-4-4-4-4-4--|

C#m       B  A  B          A G#m
Преданный слуга улыбнулся тут:
C#m     B  A  B      A G#m
"Я любил всегда свой нелегкий труд!
         C#m                A
По ночам сижу, за ножом слежу, 
    E              G#   C#m
Фигурки вырезаю из костей,
        A             E       G#
С ремеслом дружу, обожаю гостей!"

Припев:
 E|---------------------------------------------------------|
 B|---------------------------------------------------------|
 G|--6---2--(1)---------------------------------------------|
 D|--6---2---2---6------------------------------------------|
 A|--4---0---2---6------------------------------------------|
 E|----------0---4------------------------------------------|

  C#m     A         E        G#
В те дни, когда я в настроении бываю,
C#m  A       E        G#
Сидя у огня, черепа перебираю".

Соло:                                      pm----------------------|
 E|------------------------------------------------------------------|
 B|------------------------------------------------------------------|
 G|--0р1-0р1-1~~-2~~-4~~-5~~-6~~-------------------------------------|
 D|-------------------------------6-6-6----6-6-6--5-5-5-4-4-4-2-2-2--|
 A|-------------------------------6-6-6----6-6-6--5-5-5-4-4-4-2-2-2--|
 E|-------------------------------4-4-4----4-4-4--3-3-3-2-2-2-0-0-0--|

C#m A B G#m }x2
A C#m C G# G G# G G# }x4 « играется не боем, а одиночно – как в песне
C#m A E G# }x2

Припев:
 E|---------------------------------------------------------|
 B|---------------------------------------------------------|
 G|--6---2--(1)---------------------------------------------|
 D|--6---2---2---6------------------------------------------|
 A|--4---0---2---6------------------------------------------|
 E|----------0---4------------------------------------------|

C#m       B  A  B          A G#m
В те дни, когда я в настроении бываю,
C#m  A       E        G#
Сидя у огня, черепа перебираю".
C#m       B  A  B          A G#m
Все те, кто не прочь поразмять немного кости - 
C#m  A       E        G#
Вас ждут в эту ночь - мастер приглашает в гости!

C#m

Проигрыш:
 E|------------------------------------------------------------------|
 B|------------------------------------------------------------------|
 G|--6---2--(1)------------------------------------------------------|
 D|--6---2---2---6---------------------------------------------------|
 A|--4---0---2---6------------------0-4-3------------0-4-3-----------|
 E|----------0---4------------------------4--3р4-3р4-------4---------|

C#m      
 
 

Видео