Король и Шут - Тайна хозяйки старинных часов, аккорды

Прокрутка
Тональность
Шрифт
100
Куплет:
   Bm                 G 
Деревня укрылась меж шумных лесов
   Em                 F#
Туда совершенно случайно попал
   Bm                 G
Один покупатель старинных часов
   Em                 F#
Он их для музея повсюду искал
   A            G
Не мог он не удивится 
          Bm     A    G
Хозяйке старого особняка
   A             G
Красивая с виду девица
         Bm      A    G  F#
Откуда в этой глуши одна а-а а-а а-а

Припев:
  Bm           A        G     Bm
Висели над камином старинные часы 
     A         G               A          Bm
И стрелки замерли на них 100 с лишним лет назад
   A          G               A             Bm
Девица не спускала с них свой очень странный взгляд
 G       A   Bm
Они давно стоят

1)-----------------------------|
2)-----------------------------|
3)-4--4-4-4-2-7-4--------------|  x4
4)-4--4-4-4-2-7-4--------------|
5)-2--2-2-2-0-5-2----------0---|
6)----------------22-3-2-3-----|

   Bm                 G 
Но нет неподкупна хозяйка была
   Em                 F#
Часы отказалась она продавать
   Bm                 G 
И на ночь оставила гостя она
   Em                 F#
Свою предложила мужчине кровать
   A            G
Но только она заснула 
          Bm     A    G
Тихонько дверь притворив за собой
   A            G
В гостиную прошмыгнула
         Bm      A    G  F#
Фигура гостя во тьме ночной о-ой о-ой о-ой

Припев:
  Bm           A        G      Bm 
Висели над камином старинные часы 
     A         G               A          Bm
И стрелки замерли на них 100 с лишним лет назад
   A          G               A             Bm
Девица не спускала с них свой очень странный взгляд
 G       A   Bm
Они давно стоят

1)-----------------------------|
2)-----------------------------|
3)-4--4-4-4-2-7-4--------------|  x4
4)-4--4-4-4-2-7-4--------------|
5)-2--2-2-2-0-5-2----------0---|
6)----------------22-3-2-3-----|

   Bm                 G 
И сразу он в них неисправность нашёл
   Em                 F#
Лишь колокол в старых часах зазвонил
   Bm                 G 
Обратно он в спальню хозяйки пошел
   Em                 F#
Мол древнюю вещь ото сна пробудил
   A            G
В ответ она захрипела
          Bm     A    G
Был дикий ужас в ее глазах
   Em            G
Часы звенели - она старела
         Bm      A    G  F#
Пока не превратилась в прах.

Припев:
  Bm           A        G     Bm
Висели над камином старинные часы 
     A         G               A          Bm
И стрелки замерли на них 100 с лишним лет назад
   A          G               A             Bm
Девица не спускала с них свой очень странный взгляд
 G       A   Bm
Они давно стоят

1)-----------------------------|
2)-----------------------------|
3)-4--4-4-4-2-7-4--------------|  x4
4)-4--4-4-4-2-7-4--------------|
5)-2--2-2-2-0-5-2----------0---|
6)----------------22-3-2-3-----|
 
 

Видео