Король и Шут - Гимн шута, аккорды

Прокрутка
Тональность
Шрифт
100
Соло на басу вначале:
  D|----2---2-----2-2-2-0-2-2-0-------2-
  A|-------------------2----------------
  E|0-0---0---0-0---------------0-4-----

Вступление:
  B|-------------------0-------------------
  G|2---------------------------2----1-----
  D|--4-2---2--4-2------------2--------4-2-
  A|------4--------4-0-4--0-4--------------

  B|-------------------0-----0-----------
  G|2---------------------------2----1---
  D|--4-2---2--4-2------------2--------4-
  A|------4--------4-0-4--0-4------------

  E|----------0-----------------------
  B|2-2-2-0-2--2-2-2-0-2----3-2-3--2-0-
  G|----------------------2-1----------
  
  E|----------0------------------------------
  B|2-2-2-0-2--2-2-2-0-2----3-2-3--2-0-----2-
  G|-----------------------2-1---------------

 A   
 Терпеньем я не наделен,
           E                 D  
 И мне все лучше, да мне все лучше,
       A D
 Я удивлен!
       A D
 Я удивлен!

 A
 Судьба, в которую влюблен,
            E             D
 Дает мне право, смеяться даже
         A D
 Над королем!
         A E
 Над королем!

 D          A
 Стать дураком
 D              A
 Мне здесь пришлось,
 D        A             E
 Хотя я вижу всех насквозь.

          A             F#m        
 Припев: Искренне прошу, смейтесь надо мной,
          D         E
         Если это вам поможет.
          A               F#m
         Да я с виду шут, но в душе король,
          D          E
         И никто как я не может.

 A   
 Эй, вы, придворная толпа
           E               D  
 Я вас не вижу, я вас не слышу,
       A D
 Я отрешен! 
       A D
 Я отрешен!

 A   
 Меня готовы, как клопа,
           E               D  
 Топтать ногами, и это значит
       A D
 Мой час пришел! 
         A E
 Мой час пришел!

 D        A
 Открою вам 
 D        A
 Один секрет
 D        A             E
 Вельмож к несчастью честных нет.

          A             F#m        
 Припев: Искренне прошу, смейтесь надо мной,
          D         E
         Если это вам поможет.
          A               F#m
         Да я с виду шут, но в душе король,
          D          E
         И никто как я не может.

 A   
 Я всех высмеивать вокруг
           E          D  
 Имею право, и моя слава 
       A D
 Всегда со мной! 
       A D
 Всегда со мной!

 A   
 Пускай все чаще угрожают
           E              D  
 Мне расправой, но я в драках 
       A D
 Хорош собой! 
         A E
 Хорош собой!

 D        A
 Как голова 
 D      A
 Ты горяча,
 D        A            E
 Не стань трофеем палача.

          A             F#m        
 Припев: Искренне прошу, смейтесь надо мной,
          D         E
         Если это вам поможет.
          A               F#m
         Да я с виду шут, но в душе король,
          D          E
         И никто как я не может.

          A             F#m        
         Искренне прошу, смейтесь надо мной,
          D         E
         Если это вам поможет.
          A               F#m
         Да я с виду шут, но в душе король,
          D          E
         И никто как я не может.

Концовка:
  E|--0----------0-----------------------------
  B|----3-232------3-232----3-2-020----3-2-020- }x6 
  G|2----------2-------------------------------
  D|----------2----------2---------------------
 
 

Видео