Король и Шут - Прерванная любовь или Арбузная корка, аккорды

Прокрутка
Тональность
Шрифт
100
Intro:
Am                               Dm            E
E|-----------------------------------------10-12---------13-12--10-------| x2
B|-------10-12--------10-13--12-10--------------------10-----------10----|
G|-----9------------9-------------------10---------10--------------------|
D|--10-----------10------------------12----------------------------------|
A|-----------------------------------------------------------------------|
E|-----------------------------------------------------------------------|

Verse 1:
    Am                              Dm           E
Молча брожу я средь полей    Тоскую, грущу о даме своей,
G|-------------------------------------------------|
D|-------------------------------------------------|
A|--0-------------------------------5--------------|
E|-----------------------------------------------0-|

 Am                              Dm           E
Как дорога она мне была,         И без нее мне Жизнь не мила.
G|-------------------------------------------------|
D|-------------------------------------------------|
A|--0-------------------------------5--------------|
E|-----------------------------------------------0-|

    Am                              Dm           E
   Помню тот день  я, как сейчас,  Сели за стол десятый был час,
G|----------------------------------------------------------------------|
D|----------------7------5------2---------------------------------------|
A|----------------------------------5----------------------5----3--2----|
E|-/5--------------------------------------------0--------------------3-|

    Am                              Dm           E
   Ласково нам    светила луна,    Даме своей налил я вина.
G|-------------------------------------------------------------------|
D|----------------5h7-----5------------------------------------------|
A|------------------------------7---5----------------------5----3--2-|
E|--5--------------------------------------------0-------------------|

Solo:	
E|----------------------------------------------------------------7--7----8-7-|
B|-6--5-----8-----6--5--6--5-----------6--5-----8-----6--5--6--5--------------|
G|-------5--------------------5--5-----------5--------------------------------|
D|----------------------------------------------------------------------------|
A|----------------------------------------------------------------------------|
E|----------------------------------------------------------------------------|

E|----------------------------------------------------------------7--7----8-7-5-|
B|-6--5-----8-----6--5--6--5-----------6--5-----8-----6--5--6--5----------------|
G|-------5--------------------5--5-----------5----------------------------------|
D|------------------------------------------------------------------------------|
A|------------------------------------------------------------------------------|
E|------------------------------------------------------------------------------|

Riff1:
E|------------0-------------0-------------1-------------0-|
B|------------1-------------1-------------3-------------0-|
G|------------2-------------2-------------2-------------1-|
D|------------2-------------2-------------0-------------2-|
A|------------0-------------0-------------0-------------2-|
E|------------0-------------0-------------0-------------0-|

Solo 2: (+ Riff1.)
E|-12---10b12---10---------------------------------------------------------7-8-|
B|------------------13-----12-13-12-------10----------------------8---8-10-----|
G|------------------------------------------------------------7-9---9----------|
D|---------------------------------------------7h9-10--7h9-10------------------|
A|-----------------------------------------------------------------------------|
E|-----------------------------------------------------------------------------|

E|--10b12---10--------15b17---15---13---12h13-12---10----------7-7h8-7---------|
B|-------------13-------------------------------------------------------9-9h10-|
G|-----------------------------------------------------------------------------|
D|-----------------------------------------------------------------------------|
A|-----------------------------------------------------------------------------|
E|-----------------------------------------------------------------------------|

Solo 3: 
1|---5-7-8p---5-7-8-7-5----10-12-13p----10-12-13-12-10-|
2|-5--------5-----------10-----------10----------------|
3|-----------------------------------------------------|
4|-----------------------------------------------------|
5|-----------------------------------------------------|
6|-----------------------------------------------------|

Комментарий автора:

Подбор песни: Палач - Акулинцев Сергей.
 
 

Видео