Король и Шут - Охотник, аккорды

Прокрутка
Тональность
Шрифт
100
A5
Темнело за окном, наступала ночь
A5
За кухонным столом сидели мужики
      F5
весь вечер непрерывно бил по крыше дождь
  D5
И гром гремел ужасно где-то у реки

Am
Темнело за окном, наступала ночь
Am
За кухонным столом сидели мужики
     F
весь вечер непрерывно бил по крыше дождь
    Am
И гром гремел ужасно где-то у реки
Am
А в доме шло веселье и гульба
Am
Никто еще не знал, что в этот миг
  F 
Охотник Себастьян, что спал на чердаке
        Am
вдруг почернел лицом, стал дряхлым как старик

Припев:
Am F Am
Охотник (x4)  Am
1---5--5--5--5------------------------------------------
2---5--5--5--5------------------------------------------
3---5--5--5--5------------------------------------------
4---7--7--7--7--7--5--7--5--7--5------------------------
5---7--7--7--7------------------------------------------
6---5--5--5--7------------------------------------------

Am
Закончилась гроза и дождь прошел
Am
На небе появилась полная луна
     F
И повалил во двор подвыпивший народ
     Am
Смеются мужики, кричат-им не до сна
Am
Но вдруг из темноты раздался рев
Am
Затем с петель слетела в доме дверь
     F
За шумною толпой 
        Am
Бежал огромный страшный зверь

Припев:
Am F Am
Охотник (x4)  Am
1---5--5--5--5------------------------------------------
2---5--5--5--5------------------------------------------
3---5--5--5--5------------------------------------------
4---7--7--7--7--7--5--7--5--7--5------------------------
5---7--7--7--7------------------------------------------
6---5--5--5--7------------------------------------------

Am
С зарей запели петухи
Am
И хвойный лес зашелестел
     F
А в поле у реки
       Am
Лежало пять кровавых тел
Am
Проснувшись дома на полу
Am
Охотник в зеркало взглянул
     F
"О, как я сладко спал!"
         Am
Себе со смехом он сказал

Припев:
Am F Am
Охотник (x4)  Am
1---5--5--5--5------------------------------------------
2---5--5--5--5------------------------------------------
3---5--5--5--5------------------------------------------
4---7--7--7--7--7--5--7--5--7--5------------------------
5---7--7--7--7------------------------------------------
6---5--5--5--7------------------------------------------
 
 

Видео