Король и Шут - Злодей и шапка, аккорды

Прокрутка
Тональность
Шрифт
100
Вступление:
   Bm
E|-7-7---------10-10-| repeat
B|-----8-8-7-7-------|
G|-------------------|
D|-------------------|
A|-------------------|
E|-------------------|

Bm          (G)           Bm
e|------------------------------|
B|---------------------8-7------|
G|-4--4---4--4---4-6-7------7---|
D|------------------------------|
A|------------------------------|
E|------------------------------|

    Bm           (G)         Bm
E|-----------------7-5-7--------|
B|---------------7-------7--5---|
G|-4--4---4--4------------------|
D|------------------------------|
A|------------------------------|
E|------------------------------|

     Bm
  Как-то некто на базар пришел,
     Bm
  К самой первой лавке подошел:

    Bm
E|-----------------|
B|-----------------|
G|-----------------|
D|-----------------|
A|-2-2---------5-5-| repeat
E|-----3-3-2-2-----|

     Bm
E|-----------------|
B|-3---2-3---5-3-2-| repeat
G|-----------------|
D|-----------------|
A|-----------------|
E|-----------------|

     Bm
  "Эй, продавец, ну-ка думай быстрей,
     Bm
  Какую выбрать одежду мне в лавке твоей,
     Bm
  Я по характеру - злой, мое стремление - власть,
     Bm
  во мне горячая кровь, во мне свирепая страсть.

    Bm   G         A          D
    Я хочу, чтоб, видя облик мой,
    Bm   G         A          D
    все меня обходили стороной,
      A          G
    Чтобы сразу понимали,
        A           Bb
    Кто я в душе такой."

     Bm
  Торговец понял - дело непростое,
     Bm
  Что бы это предложить такое?
     Bm
  "Я б не хотел тебя, приятель, обидеть,
     Bm
  Но такого, как ты, да лучше б вовсе не видеть,
     Bm
  Я, кажется, знаю, что тебе подойдет,
     Bm
  Твой горячий характер каждый сразу поймет".

    Bm   G         A          D
    И старинный он сундук открыл,
    Bm   G         A       D
    вынул шапку и проговорил:
      A          G
    "в свое время сам великий
        A       Bb
    Карл ее носил".

     Bm
  "То, что надо," - злодей заулыбался,
     Bm
  Новой шапкой очень восхищался,
     Bm
  Шёл он домой, воображал и гордился,
     Bm
  Перед зеркалом в спальне он весь вечер крутился,
     Bm
  Но, когда снял он шапку, с ним случилась беда -
     Bm
  вместе с шапкой снялась и его голова.

     Bm    G       A           D
    "Я хочу, чтоб, видя облик мой,
     Bm    G       A         D
    все меня обходили стороной..."
 
 

Видео