Король и Шут - Лесник, аккорды

Прокрутка
Тональность
Шрифт
100
Intro: (p.m. все время) x2
 (Am)                                 (F)
e:-------------0-0---0-0-|---------3-3-1-1-|---------3-3-1-1-|-----------------|
b:-----1-1-3-3-----------|-----1-1-3-3-----|-----1-1---------|-----1-1---------|
g:-2-2-------------------|-2-2-------------|-2-2-------------|-2-2-------------|
d:-----------------------|-----------------|-----------------|-----------------|
A:-----------------------|-----------------|-----------------|-----------------|
E:-----------------------|-----------------|-----------------|-----------------|

 (Dm)                                 (G)
e:-3-3-1-1-0-0-----------------------|-3-3-1-1-0-0-----|-----------------|
b:-------------3-3---3-3---3-3---3-3-|-----------------|-----------------|
g:-----------------------------------|-----4-4-5-5-----|-----4-4-5-5-----|
d:-----------------------------------|-5-5-------------|-5-5-------------|
A:-----------------------------------|-----------------|-----------------|
E:-----------------------------------|-----------------|-----------------|

После двух раз следующий рифф: p.m. - все время
|-A5|-/-/-/-/-/-/-/-|-/-/-/-/-/-/-/-/-|-F5|-/-/-/-/-/-/-/-|-/-/-/-/-/-/-/-/-|

|-D5|-/-/-/-/-/-/-/-|-/-/-/-/-/-/-/-/-|-G5|-/-/-/-/-/-/-/-|-/-/-/-/-/-/-/-/-|

Проигрыш: A5 F5 | D5 (пауза) C5 D5 (пауза) G5 

A5               F5       G5
Измученный дорогой, я выбился из сил.
   A5              F5      G5
И в доме лесника я ночлега попросил.
A5               F5       G5
С улыбкой добродушной он меня в пустил.
  A5
И жестом дружелюбным на ужин пригласил.

D5 C5 Bb5 C5 }x2 

Chorus: (с Intro´шным риффом)
 A5                            F5
Будь как дома, путник, я не в чем не откажу,
        D5                    G5
Я ни в чем не откажу, я ни в чем не откажу!
         A5                         F5
Множество историй, коль желаешь, расскажу,
                D5                      G5
Коль желаешь, расскажу, коль желаешь, расскажу!

A5               F5       G5
На улице темнело, сидел я за столом.
A5               F5       G5
Лесник сидел напротив, болтал о том, о сем.
A5               F5       G5
Что нет среди животных у старика врагов,
  A5
Что нравится ему подкармливать волков.

Chorus: (с Intro´шным риффом)
 A5                            F5
Будь как дома, путник, я не в чем не откажу,
        D5                    G5
Я ни в чем не откажу, я ни в чем не откажу!
         A5                         F5
Множество историй, коль желаешь, расскажу,
                D5                      G5
Коль желаешь, расскажу, коль желаешь, расскажу!

A5               F5       G5
И волки среди ночи завыли под окном.
A5               F5       G5
Старик заулыбался и вдруг покинул дом.
A5               F5       G5
Но вскоре возвратился с ружьем наперевес:
  A5
"Друзья хотят покушать, пойдем, приятель, в лес!"

Chorus: (с Intro´шным риффом)
 A5                            F5
Будь как дома, путник, я не в чем не откажу,
        D5                    G5
Я ни в чем не откажу, я ни в чем не откажу!
         A5                         F5
Множество историй, коль желаешь, расскажу,
                D5                      G5
Коль желаешь, расскажу, коль желаешь, расскажу!

Coda: 
-------------------------------------|-------------------------------------|
-----3-3-4-3-----3-3-4-3-4---6-4-----|-----3-3-4-3-----3-3-4-3-4---6-4-8---|
-0-----------0-----------------------|-0-----------------------------------|
---------------------------------2---|-------------------------------------|
 
 

Видео