Король и Шут - Зловещий кузен, аккорды

Прокрутка
Тональность
Шрифт
100
Проигрыш:
   Bm                Bm        F#m       Em                 F#
1|-------------------------------------------------------------------2-------
2|---3-2-------3-2------3-2---------2----------------------------2-----2---2-
3|-4-----2-4---4-2----4-----4----2-----------0---------0-------3---3-----3---
4|-4---------4--------4-----------4---4----2---4-0-2-4---2---4--------------- 
5|-2-------2----------2-----------4---4-------------------------------------- 
6|-------------------------------2---------0-----------------2---------------

Затем вступает вторая гитара; играет параллельно с первым соло:
1|-----2-0f20-----------2-0-----------------------------------
2|-2>3--------2-3---2>3-----2---------------------------------
3|----------------------------2-------0---------0-----3---3---
4|--------------------------------0>2---4-0-2-4-----4---4---4- 
5|------------------------------------------------------------
6|------------------------------------------------------------

    Bm              Em                Bm
Вокруг догорающей свечки кружили мотыльки...
       Bm              Em                 Bm 
В ту брачную ночь у невесты прорезались клыки!
  D                A                         D        
Отец был просто в шоке, жених был вусмерть пьяный
   Bm                E                           F#
И лишь кузен ее, погрязший, гад, в пороке... все улыбался, окаянный!

Припев:
 Bm    Em  F#    Bm     Em  F#     Em         F# 
Обожаю я гулять, обожаю я гулять и шею нежную кусать 
 Bm             Em F#    Bm             Em  F#       Em                 F#        
Нету для меня преград, нету для меня преград, и каждой жертве очень рад!
 Bm        A             Em         F#       
Хочу туда! Хочу сюда! И кровь - моя еда!  

    Bm              Em                Bm
Невеста стонала от муки, отец рассвирепел,
    Bm              Em                Bm
Сломал он племяннику руки, а ноги не сумел.
  D                A                    D        
Затем велел остаться с невестой мать и тещу,
   Bm                E                           F#
Схватив за шиворот зловещего мерзавца, увел в осиновую рощу...

Припев: 
Bm                           A
Не знал мужик, каким путем от гада избавляться.
Em                           F#
Ударил по носу локтем - мерзавец стал смеяться.
Bm                         A  
Его к осине привязал, но тот был слишком ловок,
Em                              F#
"Болван", - папаше он сказал и вылез из веревки.
Em                             A 
К утру мужик пришел домой, принес клыки злодея,
Em                               F#
Бить в зубы было не в первой... Ха-ха-ха-ха! Хорошая идея!

Комментарий автора:

Сокращения и обозначения, использовавшиеся при подборе песни:
> - глиссандо ("подъезд")
f - форшлаг
 
 

Видео