Король и Шут - Сосиска, аккорды

Прокрутка
Тональность
Шрифт
100
Вступление:
  D
E---2---2---2---2---2---2------------2---2---2---2---2---2----------
B---3---3---3---3---3---3------------3---3---3---3---3---3----------
G---2---2---2---2---2---2------------2---2---2---2---2---2----------
D-0-------0-------0-------0--------0-------0-------0-------0--------
A-----0-------0-------0------0-2-4-----0-------0-------0------0-2-4-
E-------------------------------------------------------------------

Куплет:
  D                Bm              G       A       D
E---2---2---2---2---2---2---2---2---3---3---0---0---2---2---2---2-
B---3---3---3---3---3---3---3---3---3---3---2---2---3---3---3---3-
G---2---2---2---2---4---4---4---4---4---4---2---2---2---2---2---2-
D-0-------0---------------------------------------0-------0-------
A-----0-------0---2-------2-------5-------0-----------0-------0---
E---------------------2-------2-------3-------0-------------------
                                                                          
Припев:
   Bm              A       Bm      G               A 
E---2---2---2---2---0---0---2---2---3---3---3---3---0---0---0---0-
B---3---3---3---3---2---2---3---3---3---3---3---3---0---0---0---0-
G---4---4---4---4---2---2---4---4---4---4---4---4---2---2---2---2-
D-----------------------------------------------------------------
A-2-------2-------0-------2-------5-------5-------0-------0-------
E-----2-------2-------0-------2-------3-------3-------0-------0---


   Bm              A       Bm      G               A               Bm
E---2---2---2---2---0---0---2---3---3---3---3---0---0---0---0-------2---2---2---2---2-----------
B---3---3---3---3---2---2---3---3---3---3---3---0---0---0---0-------3---3---3---3---3-----------
G---4---4---4---4---2---2---4---4---4---4---4---2---2---2---2-------4---4---4---4---4-----------
D-----------------------------------------------------------------------------------------------
A-2-------2-------0-------2-------5-------5-------0-------0-------2-------2---------2-----2-3-4-
E-----2-------2-------0-------2-------3-------3-------0-------0-------2-------2-----------------

Куплет 1:
  D               Bm  
  Первым парнем я был во дворе,
          G       A          D    
  Всех девчонок я знал очень близко,
  D               Bm  
  Но ужасно не нравилось мне,
          G       A       D  
  Что меня называли сосиской.

  D               Bm  
  Я ругаться с людьми не умел
          G       A        D  
  И сосискою быть не хотелось,
  D               Bm  
  Я их даже, представьте, не ел,
          G       A          D  
  Внешних сходств никаких не имелось. 

Припев:
      Bm                F#      Bm
  Ну, зачем называют сосиской меня,
           G      F#       
  Мне же стыдно и очень обидно,
       Bm              F#     Bm 
  И от этого слова в душе плачу я, 
           G        F#            Bm 
  Только внешне вам это не видно, йа!

Куплет 2:
  D               Bm  
  И с девчонкой любимой своей,
          G       A          D  
  Мы расстались, увы, очень быстро,
  D               Bm  
  Потому, что сказал кто-то ей:
          G       A          D  
  "Ты, Наташка, гуляешь с сосиской!"

  D               Bm  
  С горя начал я всех избегать
          G       A       D  
  И шарахался я от прохожих,
  D               Bm  
  И друзей мне пришлось потерять,
          G       A         D  
  Стал я сам на себя не похожий

Припев:
      Bm               F#        Bm
  Ну, зачем называют сосиской меня,
           G      F#       
  Мне же стыдно и очень обидно,
       Bm              F#     Bm 
  И от этого слова в душе плачу я, 
           G        F#            Bm 
  Только внешне вам это не видно, йа!

  D               Bm  
  И, конечно, меня не со зла,
          G       A     D  
  Ради шутки сосискою звали,
  D               Bm  
  Но обида мне в сердце ползла,
          G       A   D  
  Эти буквы меня убивали.

  D               Bm  
  Разум мой погрузился во тьму,
          G       A          D  
  В сумасшедшего я превратился,
  D               Bm  
  Стал я ночью вопить на луну
          G       A         D  
  Ну зачем я на свет появился?

Припев:
      Bm               F#        Bm
  Ну, зачем называют сосиской меня,
           G      F#      
  Мне же стыдно и очень обидно,
       Bm               F#    Bm 
  И от этого слова в душе плачу я, 
           G        F#           Bm 
  Только внешне вам это не видно, йа!
 
 

Видео