Король и Шут - Прерванная любовь или Арбузная корка, аккорды

Прокрутка
Тональность
Шрифт
100
Solo:
1---5-7-8p---5-7-8-7-5----10-12-13p----10-12-13-12-10-|
2-5--------5-----------10-----------10----------------|
3-----------------------------------------------------|
4-----------------------------------------------------|
5-----------------------------------------------------|
6-----------------------------------------------------|

Am          
Молча брожу я средь полей
Dm            E
Тоскую, грущу о даме своей,
Am          
Как дорога она мне была,
Dm            E
И без нее мне жизнь не мила.
Am          
Помню тот день я, как сейчас,
Dm            E
Сели за стол десятый был час,
Am          
Ласково нам светила луна,
Dm            E
Даме своей налил я вина.

Am          
Стали мы с ней при свечах танцевать, 
Dm            E
Старался ее я покрепче обнять,
Am          
Магнитофон сладко нам пел, 
Dm            E
Я хмельную ее душой и телом хотел.
Am          
На пол упало платье ее,
Dm            E
Застучало в груди сердце мое,
Am          
В волосы я ей страстно дышал,
Dm            E
Взгляд ее нежный меня сокрушал.

Am          
И вот тогда случилась беда, 
Dm            E
Мне этот миг не забыть никогда.
Am          
На  арбузную корку наступила она 
Dm            E
И... ХЛОП головой об угол стола,
Am          
Вместе с ней падал и я 
Dm            E
Вывихнул руку, но это фигня.
Am          
Долго ее я жить умолял,
Dm            E
Арбузную корку я в сердцах проклинал.

Solo:
1|-12p-12-10-8p-7-8-7-5----------------5-7p-12-10-8-14-13-12p-12-13-12-10p-5-7-8-7-3-5-|
2-----------------5-7p-5-7-------------------------------------------------------------|
3-----------4-5-7----------------------------------------------------------------------|
4--------------------------------------------------------------------------------------|
5--------------------------------------------------------------------------------------|
6--------------------------------------------------------------------------------------|
 
 

Видео