Король и Шут - Утопленник, аккорды

Прокрутка
Тональность
Шрифт
100
N/С
Я б это с радостью забыл,
Как вспомню, так кидает в дрожь,
Но расскажу вам все как было,
Устал от ваших кислых рож

Intro:
   A
3|-7-------------------------|
4|----10>9>7--5-7--9-7-------| x 4
5|---------------------9-7-9-|

Куплет 1:
   A
Однажды, набравшись я вылез в окно,
    C      G         A
На реку угрюмо взглянул
   D                C
Вода была красная, будто вино,
   F#
У берега кто-то тонул.
   A
Я мог бы, наверно, бедняге помочь,
    C      G        A
Но ноги пошли не туда.
   D                C
Вдруг крик оборвался и сгинул он прочь
   F#
И стала спокойной вода!

D
И с тех пор манящий взгляд его
  A  G   F#  G F#
Преследовал меня,
  D
Стал я чаще пить вино
                 F#  G F#
И проклинал тот день я-а!

Припев:
 A               D             A G C B  
Жуткая ночь хохотала потоками ливня,   
                                   E
   A                D           5|-7-6-7-8--7-8-10--9-10-12--11-12-|
В шуме воды мне послышались чьи-то шаги.    

   A               D               A           G       C B
4|-7-7-7-7-6----7-10-10-10-10-9-10-7-7-7-7-6-7-5-5-5-5-4-5--
Я мертвеца у себя на пороге увидел,

      A               D                  E     D      C        B
3|----2-2-2-2-1----2--5-5-5-5--4----5----7-6-7-8--7-8-10--9-10-12--11-12-|
И голос ужасный его прокричал: "Помоги!"

Куплет 2:
   A
Об пол разлетелась бутылка вина,
    C      G         A
Ужасным казался мне гость,
   D                C
И боль как огнем мне плечо обожгла,
   F#
И пальцы вонзились мне в кость.
  A
В прохладной реке поднималась вода
    C      G     A
Затапливая острова.
   D                C
Я в миг протрезвел и помчался туда,
  F#
Где рыбацкая лодка была

D
Теченье лодку уносило
  A  G   F#  G F#
Я зацепится чудом смог
 D
За борт держась, собравшись силой,
                 F#  G F#
Залез в нее, на днище лёг

Припев:
 A               D             A G C B  
Жуткая ночь хохотала потоками ливня,   
                                   E
   A                D           5|-7-6-7-8--7-8-10--9-10-12--11-12-|
В шуме воды мне послышались чьи-то шаги.    

   A               D               A           G       C B
4|-7-7-7-7-6----7-10-10-10-10-9-10-7-7-7-7-6-7-5-5-5-5-4-5--
Я мертвеца у себя на пороге увидел,

      A               D                  E     D      C        B
3|----2-2-2-2-1----2--5-5-5-5--4----5----7-6-7-8--7-8-10--9-10-12--11-12-|
И голос ужасный его прокричал: "Помоги!"

Solo 1:
   A
3|-7-------------------------|
4|----10>9>7--5-7--9-7-------|
5|---------------------9-7-9-|
   C
3|-7-------------------------|
4|----10>9>7--5-7--9-7-------|
5|---------------------9-7-9-|
   D
3|-7-------------------------|
4|----10>9>7--5-7--9-7-------|
5|---------------------9-7-9-|
   E
3|-7------7-------9--9-9-9-9-7--------|
4|---10-7----10-7--------------10>9>7-|

Соло 2: A C D E

Куплет 3:
  A
Всю ночь провалялся без памяти я,
    C      G         A
Очнулся с больной головой.
   D                C
Причалила к берегу лодка моя,
  F#
Не помню, что было со мной.
  A
В кармане лежала бутылка вина,
    C      G         A
Но я удивляться не стал,
   D                C
А просто открыл, начал пить из горла
  F#
И вдруг над собой увидал

D
Как тучи небо закрывают
  A  G   F#  G F#
И не видно им конца,
 D
Раскаты грома вызывают
                 F#  G F#
Из речки тело мертвеца-а.

Припев:
 A               D             A G C B  
Жуткая ночь хохотала потоками ливня,   
                                   E
   A                D           5|-7-6-7-8--7-8-10--9-10-12--11-12-|
В шуме воды мне послышались чьи-то шаги.    

   A               D               A           G       C B
4|-7-7-7-7-6----7-10-10-10-10-9-10-7-7-7-7-6-7-5-5-5-5-4-5--
Я мертвеца у себя на пороге увидел,

      A               D                  E     D      C        B
3|----2-2-2-2-1----2--5-5-5-5--4----5----7-6-7-8--7-8-10--9-10-12--11-12-|
И голос ужасный его прокричал: "Помоги!"

  E     D      C        B         A
3|7-6-7-8--7-8-10--9-10-12--11-12-15--|
 
 

Видео