Король и Шут - Волосокрад, аккорды

Прокрутка
Тональность
Шрифт
100
Вступление:
 N/С
 Луна средь звезд на темном пастбище блуждала,
 Трактир был слева; справа лес стоял стеной,
 И с высоты луна безмолвно наблюдала
 За тем, кто всюду по пятам ходил за мной.
 В пустом трактире за столом сидел я молча,
 Курил махорку я и думал о своем.
 Взглянул в окно, стал любоваться темной ночью
 Крыльцо увидел - человек лежал на нем.
 РАСДАЛСА ГРОМ! И ветер тучи нагоняя,
 Резвился в поле. Дождь струился проливной.
 А тот на улице валялся не вставая,
 Видать конкретно его хмель сразил пивной.
 Решив помочь ему я вышел в непогоду,
 И удивился: это был столетний дед.
 Он прохрипел из уст выплевывая воду:
 "Я как и ты мне еще только тридцать лет".
 Он умер, мы его в сарае положили.
 Трактирщик начал мне рассказывать о том,
 Что силы зла на них проклятье наложили,
 Прислав посланца к ним с рогами и хвостом.

Потом идет соло: x4
1|----------------------------------------------------------------|
2|-----5-5--------------------------------------------------------|
3|---------6-6-4-4---6-4----------------4-----4-6-----------------|
4|-7-7-------------7-----4----4---4-7-7---7-7-----4---2/4-4-2/4-4-|
5|------------------------------7---------------------------------|
6|----------------------------------------------------------------|

Следующие две строчки играются так:  
1|---------------------------------------------|
2|---------------------------------------------|
3|---------------------------------------------|
4|-7--7-7-7--7-7-7--7-7-7--4-4-4--4-4-4--4-4-4-|
5|-7--7-7-7--7-7-7--7-7-7--4-4-4--4-4-4--4-4-4-|
6|-5--5-5-5--5-5-5--5-5-5--2-2-2--2-2-2--2-2-2-

    A                       F#m                          
    Эй друг что за горе постигло ваши края?
    A                       F#m                          
    Что  за  зло на воле? - спросил трактирщика я
 
Припев: 
1|------------------------------------------------------------------------|
2|------------------------------------------------------------------------|
3|-4--4--4--4--4--4---5--5--5--5--5--5------------------------------------|
4|-4--4--4--4--4--4---5--5--5--5--5--5---5--5--5--5--5--5---7--7--7--7--7-|
5|-2--2--2--2--2--2---3--3--3--3--3--3---5--5--5--5--5--5---7--7--7--7--7-|
6|---------------------------------------3--3--3--3--3--3---5--5--5--5--5-|

   Bm                 C             
 В зловещем тумане он жертву находит. 
   G                  A
 Он тихо крадется у нас за спиной. 
   Bm                 C            
 И глядя как с вами беда происходит, 
   G                  A
 Он дико смеется и брызжет слюной.
   Bm                 C            
 Жить нам стало худо, исчезла вся молодежь.
   G                  A
 Уезжай скорей отсюда, ты здесь лишь гибель найдешь.

Соло:    
1|---------------------------------5----4---2-----|
2|----------------------------------------------5-|
3|-2-----4---2h42---2-----4-----2-----------------|
4|----------------5-------------------------------|
5|------------------------------------------------|
6|------------------------------------------------|

1|---------------------------------5----4---2-----|
2|----------------------------------------------5-|
3|-2-----4---2h42---2-----4-----2-----------------|
4|----------------5-------------------------------|
5|------------------------------------------------|
6|------------------------------------------------|

1|-4--2-0-2-0---0-2-0---4--2-0-2---0-2-0-|
2|------------2------------------2-------|
3|---------------------------------------|
4|---------------------------------------|
5|---------------------------------------|
6|---------------------------------------|

    A                       F#m     
 Не зря трактирщик распирался, он гад служил сатане.
    A                       F#m     
 Сзади тихо черт подкрался, вцепился в волосы мне.
    A                       F#m     
 Услышав чертов мерзкий голос, ему с размаху в рыло дал.
    A                       F#m     
 Но теряя каждый волос, год жизни я терял. 

Припев: 
1|------------------------------------------------------------------------|
2|------------------------------------------------------------------------|
3|-4--4--4--4--4--4---5--5--5--5--5--5------------------------------------|
4|-4--4--4--4--4--4---5--5--5--5--5--5---5--5--5--5--5--5---7--7--7--7--7-|
5|-2--2--2--2--2--2---3--3--3--3--3--3---5--5--5--5--5--5---7--7--7--7--7-|
6|---------------------------------------3--3--3--3--3--3---5--5--5--5--5-|

   Bm                 C             
 В зловещем тумане он жертву находит. 
   G                  A
 Он тихо крадется у нас за спиной. 
   Bm                 C            
 И глядя как с вами беда происходит, 
   G                  A
 Он дико смеется и брызжет слюной.
   Bm                 C            
 Жить нам стало худо, исчезла вся молодежь.
   G                  A
 Уезжай скорей отсюда, ты здесь лишь гибель найдешь.
  
  G               Em     
 Теперь я знаю у чертей полно идей.
  G               Em     
 Коварством, хитростью, свое они добывают.
  G               Em     
 Но хуже нам когда среди людей у них сообщники бывают.

Outro = Intro:
1|----------------------------------------------------------------|
2|-----5-5--------------------------------------------------------|
3|---------6-6-4-4---6-4----------------4-----4-6-----------------| x4
4|-7-7-------------7-----4----4---4-7-7---7-7-----4---2/4-4-2/4-4-|
5|------------------------------7---------------------------------|
6|----------------------------------------------------------------|
 
 

Видео