Король и Шут - Дурак и молния, аккорды

Прокрутка
Тональность
Шрифт
100
Бас:
1------------------------------------------------------------------------------
2------------------------------------------------------------------------------
3---------------------------------------------4--------------------------------
4---------------------6--4--------4--6-----6----6--------------------6--4------
5---0--4--6--7-----6--------4--7--------4----------0--4--6--7-----6---------4--
6---------------4----------------------------------------------4---------------

             A  G#         C#m
  Грохочет гром, сверкает молния в ночи,
           A G#       C#m
  А на холме стоит безумец и кричит:
          A          G#           C#m
  "Сейчас поймаю тебя в сумку, и сверкать ты будешь в ней.
           A              G#       C#m
  Мне так хочется, чтоб стала ты моей".

    A             G#    C#m
    То парень к лесу мчится,
    A            G#      C#m
    То к полю, то к ручью,
      A     G#7      C#m   A  G# C#m
    Все поймать стремится молнию.

             A  G#         C#m
  Весь сельский люд смотреть на это выходил,
             A  G#         C#m
  Как на холме безумец бегал и чудил.
          A          G#           C#m
  Он, видно, в ссоре с головою, видно, сам себе он враг,
             A  G#         C#m
  Надо ж выдумать такое - во дурак.

    A             G#    C#m
    То парень к лесу мчится,
    A            G#      C#m
    То к полю, то к ручью,
      A     G#7      C#m   A  G# C#m
    Все поймать стремится молнию.

  B                    E
  Утром по сельской дороге
            A            B
  Медленно шел ночной герой,
           G#        C#m
  Весь лохматый и седой,
        A    G#
  И улыбался.

Проигрыш:
1--------------------------------------------------------------------------
2|----5-5-5-4-4-5--2-----5---7--4-5----5-5-7-7-9--5---10-9--(10-9-10-9-10-9)
3---------2----4-----------------------------------------------------------

   B             A#     D#m
   То парень к лесу мчится,
   B            A#      D#m
   То к полю, то к ручью,
      B     A#7      D#m   B  A# D#m
   Все поймать стремится молнию.

Комментарий автора:

  Аккорды играются на баре с акцентом на нижние струны.
 
 

Видео