Король и Шут - Лесник, аккорды

Прокрутка
Тональность
Шрифт
100
Вступление: Am | F | Dm | G |  } 4 раза
            Am | Am F | Dm G | Am F | Dm G

Am                    F          G
Замученный дорогой, я выбился из сил
Am                    F          G
И в доме лесника я ночлега попросил
Am                    F          G
С улыбкой добродушной старик меня впустил
Am                                   Dm  Em G
И жестом дружелюбном на ужин пригласил.

Припев:
Am                          F
Будь как дома путник я ни в чем не откажу,
       Dm                    G
Я ни в чем не откажу, я ни в чем не откажу!
Am                          F
Множество историй коль желаешь, расскажу,
       Dm                    G
Коль желаешь, расскажу, коль желаешь, расскажу!

Am                    F          G
На улице темнело, сидел я за столом,
Am                    F          G
Лесник сидел напротив, болтал о том, о сем,
Am                    F          G
Что нет среди животных у старика врагов,
Am                                   Dm Em G
Что нравится ему подкармливать волков!

Припев:
Am                          F
Будь как дома путник я ни в чем не откажу,
       Dm                    G
Я ни в чем не откажу, я ни в чем не откажу!
Am                          F
Множество историй коль желаешь, расскажу,
       Dm                    G
Коль желаешь, расскажу, коль желаешь, расскажу!

Am                    F          G
И волки среди ночи завыли под окном,
Am                    F          G
Старик заулыбался и вдруг покинул дом,
Am                    F          G
Но вскоре возвратился с ружьем наперевес:
Am                                   Dm  Em G
"Друзья хотят покушать, пойдем, приятель, в лес !"

Припев:
Am                          F
Будь как дома путник я ни в чем не откажу,
       Dm                    G
Я ни в чем не откажу, я ни в чем не откажу!
Am                          F
Множество историй коль желаешь, расскажу,
       Dm                    G
Коль желаешь, расскажу, коль желаешь, расскажу!

Комментарий автора:

Аккорды вступления: Zamengof

E||--------------------------|--------------------------|
B||--------------------------|--------------------------|
G||--------------------------|--------------------------|
D||--------------0--0--2--2--|--------------0--0--2--2--|
A||--0--0--3--3--------------|--0--0--3--3--------------|
E||--------------------------|--------------------------|


E||--------------------------|--------------------------|
B||--------------------------|--------------------------|
G||--------------------------|--------------------------|
D||--------------5--5--3--3--|---------------5--5--3--3-|
A||---0--0--3--3-------------|---0--0--3--3-------------|
E||--------------------------|--------------------------|


E||--------------------------|--------------------------|
B||--------------------------|--------------------------|
G||--------------------------|--------------------------|
D||---5--5--3--3--2--2--0--0-|---5--5--3--3--2--2--0--0-|
A||--------------------------|--------------------------|
E||--------------------------|--------------------------|


E||--------------------------|--------------------------|
B||--------------------------|--------------------------|
G||--------------------------|--------------------------|
D||---------------------0--0-|--------------------0--0--|
A||---------2--2--3--3-------|--------2--2--3--3--------|
E||---3--3-------------------|---3--3-------------------|
 
 
Свернуть Распечатать

Видео