Король и Шут - Прыгну со скалы, аккорды

Прокрутка
Тональность
Шрифт
100
  Dm       Gm   Am
E|1-0-1-3-5---3-1---5-6-5--|
B|3-3-3-3-3---3-3---5-5-5--|
G|2-2-2-2-2---3-3---5-5-5--|
D|-------------------------|
A|-------------------------|
E|-------------------------|
С головы сорвал ветер мой колпак
Я хотел любви, но вышло все не так

 F   Gm    A#    Am  F     Gm    A
E|1-1-1-3-3-3---1-1-1!3-0----1-1-1---3-3-3---5-5-5-9-9-5-|
B|1-1-1-3-3-3!--3-3!3-3-1----1-1-1---3-3-3---5-5-5-5-5-5-|
G|2-2-2-3-3-3---3-3-3-3-2----2-2-2---3-3-3---6-6-6-6-6-6-|
D|-------------------------------------------------------|
A|-------------------------------------------------------|
E|-------------------------------------------------------|
Знаю я ничего в жизни не вернуть и теперь у меня
один лишь только путь.

Drive: A5
E|--------------|
B|--------------|
G|--------------|
D|7-7-7-7-7-7-7-|
A|7-7-7-7-7-7-7-|
E|5-5-5-5-5-5-5-|

Припев:
 Dm      C   Gm A7      Dm     C
Gm A7
E|-------------------(-5-3-1-0-)-------------------------------|
B|-6-6-6-6-5---------------------6-6-6-6-5---------------------|
G|-----------7-5---7-----------------------7-5-5-----(-7-5-----|
D|---------------7-------------------------------7-7------7-5-)|
A|-------------------------------------------------------------|
E|-------------------------------------------------------------|
Разбежавшись прыгну со скалы   Вот я был и вот
меня не стало

 F         Am       Gm     A7   Dm
E|1-1-1-1-1-1-3-5-5-3-1-0---1-1-1-1-1-1-1-3--------|
B|------------------_/---------------------3-3-3--|
G|-------------------------------------------------|
D|-------------------------------------------------|
A|-------------------------------------------------|
E|-------------------------------------------------|
И когда об этом вдруг узнаешь ты, тогда поймешь
кого ты потеряла.

Проигрыш:
 Dm      C   Gm A7      Dm     C
Gm A7
E|-------------------(-5-3-1-0-)-------------------------------|
B|-6-6-6-6-5---------------------6-6-6-6-5---------------------|
G|-----------7-5---7-----------------------7-5-5-----(-7-5-----|
D|---------------7-------------------------------7-7------7-5-)|
A|-------------------------------------------------------------|
E|-------------------------------------------------------------|

  Dm       Gm   Am
E|1-0-1-3-5---3-1---5-6-5--|
B|3-3-3-3-3---3-3---5-5-5--|
G|2-2-2-2-2---3-3---5-5-5--|
D|-------------------------|
A|-------------------------|
E|-------------------------|
Быть таким как все с детства не умел
Видимо такой в жизни мой удел

 F   Gm    A#    Am  F     Gm    A
E|1-1-1-3-3-3---1-1-1!3-0----1-1-1---3-3-3---5-5-5-9-9-5-|
B|1-1-1-3-3-3!--3-3!3-3-1----1-1-1---3-3-3---5-5-5-5-5-5-|
G|2-2-2-3-3-3---3-3-3-3-2----2-2-2---3-3-3---6-6-6-6-6-6-|
D|-------------------------------------------------------|
A|-------------------------------------------------------|
E|-------------------------------------------------------|
А она да что она вечно мне лгала
И меня никогда понять бы не смогла

Припев:

  Dm       Gm   Am
E|1-0-1-3-5---3-1---5-6-5--|
B|3-3-3-3-3---3-3---5-5-5--|
G|2-2-2-2-2---3-3---5-5-5--|
D|-------------------------|
A|-------------------------|
E|-------------------------|
Гордо скинув плащ вдаль направлю взор
Может она ждет вряд ли это вздор

 F   Gm    A#    Am  F     Gm    A
E|1-1-1-3-3-3---1-1-1!3-0----1-1-1---3-3-3---5-5-5-9-9-5-|
B|1-1-1-3-3-3!--3-3!3-3-1----1-1-1---3-3-3---5-5-5-5-5-5-|
G|2-2-2-3-3-3---3-3-3-3-2----2-2-2---3-3-3---6-6-6-6-6-6-|
D|-------------------------------------------------------|
A|-------------------------------------------------------|
E|-------------------------------------------------------|
И издав дикий крик камнем брошусь вниз
Это моей жизни заключительный каприз

Припев:
 Dm      C   Gm A7      Dm     C
Gm A7
E|-------------------(-5-3-1-0-)-------------------------------|
B|-6-6-6-6-5---------------------6-6-6-6-5---------------------|
G|-----------7-5---7-----------------------7-5-5-----(-7-5-----|
D|---------------7-------------------------------7-7------7-5-)|
A|-------------------------------------------------------------|
E|-------------------------------------------------------------|
Разбежавшись прыгну со скалы   Вот я был и вот
меня не стало

 F         Am       Gm     A7   Dm
E|1-1-1-1-1-1-3-5-5-3-1-0---1-1-1-1-1-1-1-3--------|
B|------------------_/---------------------3-3-3--|
G|-------------------------------------------------|
D|-------------------------------------------------|
A|-------------------------------------------------|
E|-------------------------------------------------|
И тогда себя возненавидишь ты
Когда поймешь кого ты потеряла.

В конце:
 Dm      C   Gm A7      Dm     C
Gm A7      Dm(X)
------------------(-5-3-1-0-)--------------------------------10|
6-6-6-6-5---------------------6-6-6-6-5------------------------|
----------7-5---7-----------------------7-5-5-----(-7-5--------|
--------------7-------------------------------7-7------7-5-)---|
---------------------------------------------------------------|
---------------------------------------------------------------|

Комментарий автора:

| - реприза (повтор)
_/ - лига (объединение нот)
! - усиление
 
 

Видео