Король и Шут - Забытые ботинки, аккорды

Прокрутка
Тональность
Шрифт
100
Intro:
E|----1-3-3-5-0-0-0--|-3-1------|-3-1-------|
B|3-3--------------1-|----3-----|-----3-----|
G|-------------------|------2-0-|-------2-0-|
D|-------------------|----------|-----------|
A|-------------------|----------|-----------|
E|-------------------|----------|-----------|
 
Main:
E|--5-3-1---3-1-------1-0---|-------0---------1-5-3---|
B|3-------3-----3---------1-|---3-3---3-3---3-------3-|
G|----------------2-4-------|-2-----------4-----------|
D|--------------------------|-------------------------|
A|--------------------------|-------------------------|
E|--------------------------|-------------------------|

E|--5-3-1---3-1-------1-0---|-----------------1-5-3---|
B|3-------3-----3---------1-|---3-3-3-3-3---3-------3-|
G|----------------2-4-------|-2-----------4-----------|
D|--------------------------|-------------------------|
A|--------------------------|-------------------------|
E|--------------------------|-------------------------|

E|--8-8-8-8-8-0-0-----3-1-----|-0-1-1-1-1-0-0-0-0-5-5-5-|
B|3---------------3-3-----3-3-|-------------------------|
G|----------------------------|-------------------------|
D|----------------------------|-------------------------|
A|----------------------------|-------------------------|
E|----------------------------|-------------------------|

E|-5-5-5-5-5-10-10-10-1-0-0-0-0-8-8-|---------0-1---5-3---|
B|----------------------------------|-1-3-3-3-----3-----3-|
G|----------------------------------|---------------------|
D|----------------------------------|---------------------|
A|----------------------------------|---------------------|
E|----------------------------------|---------------------|

Chorus:
E|----------------|---------------|
B|----------------|-3-3-1---------|
G|----------------|-------4-2-0---|
D|----2-2-s0------|-------------3-|
A|3-3-------3-2-0-|---------------|
E|----------------|---------------|

E|--------------|-------------0---|
B|--------------|-1-3-3-3-3-3---3-|
G|--------------|-----------------|
D|----2-2-3-0---|-----------------|
A|3-3---------3-|-----------------|
E|--------------|-----------------|
 
 

Видео