Ласковый Май - Забудь, аккорды

Прокрутка
Тональность
Шрифт
100
Основной рифф:
1|-------0--------------------------0--------------0-------------0-  
2|---------3-1---------3-1-0----------3-1------------3-1-----------  
3|-------------2-----0-------0-----2-------2-----2-------2-----2--- 
4|-3---------------------------------------------------------------  
5|------------------------------0-------------3-------------3------ 
6|----------------3------------------------------------------------ 

1|----------------------------0-------------0-------
2|--3-1---------3-1-0-----------3-1-----------3-1---
3|------2-----0-------0-----2-------2-----2-------2-
4|--------------------------------------------------
5|-----------------------0-------------0------------
6|---------3----------------------------------------

Комментарий автора:

Текст:

1.Она с него не сводит глаз
  И молча льет в подушку слезы, 
  И пишет строчки о любви, 
  И тут же жжет. 
  Она еще не поняла, 
  Она еще вполне серьезна, 
  Надеется и верит, 
  Что он подойдет. 

Припев: 
  Забудь его забудь, 
  Уйдет любовь, как дым. 
  Ведь у него в мечтах Не ты, не ты, не ты. .. 
  Забудь его забудь, 
  Уйдет любовь, как дым. 
  Ведь у него в мечтах Не ты. 

2. Она слепа в любви своей 
  Не слушает чужие сплетни
  И пишет строчки о любви, И просто ждет. 
  И в общем безразлично ей, 
  С кем он проводит вечер летний. 
  Надеется и верит, Что он подойдет.

Припев:
  Забудь его забудь, Уйдет любовь, как дым.
  Ведь у него в мечтах Не ты, не ты , не ты... 
  Забудь его забудь, Уйдет любовь, как дым. 
  Ведь у него в мечтах... 
  Забудь его забудь, Уйдет любовь, как дым.
  Ведь у него в мечтах Не ты, не ты, не ты...
  Забудь его забудь, Уйдет любовь, как дым. 
  Ведь у него в мечтах Не ты.
 
 

Видео