Запрещают песни Цоя, Агата Кристи, Наутилус Помпилиус, Зиверт
Отвечаем в отдельной теме

Ленинград - Короче, аккорды

Прокрутка
Тональность
Шрифт
100
        Em
Ерунду ты говоришь,
        Em
Что нам Лондон, что Париж.
                G
Да шашлыка там нету даже,
G
А картины в Эрмитаже
           Em
Ты посмотришь если чё
        Em
Что Геракл, что качок,
             G
Вон спроси у нашей дочи,
          D              G
Мы короче с ней хочим в Сочи.

Припев:
             Am      D 
Спорить нет с тобою мочи,
           G         Em        
Мы, короче, хочим в Сочи.
          Am        D 
Мы, короче, очень-очень,
          G
Хочим в Сочи.

Проигрыш: Am D G Em Am D G

e----------------------------------------------
b----------------------------------------------
g----------------------------------------------
d---5-7--5-7----5-9-7-5----5-7-7-7-5-9-7-5-4-5-
a-7-----------7----------7---------------------
e----------------------------------------------

Em
Покатавшись на Банане,
Em
В тапках и в одной панаме
            G
Все, обмазавшись в сметане
G
Фотки кинем твоей маме.
       Em
Поедим там чебуреков,
Em
Нет таких у еврогреков.
             G
Вон спроси у нашей дочи,
               D       G
Мы с ней очень хочим в Сочи.

Припев:
             Am      D 
Спорить нет с тобою мочи,
           G        Em        
Мы, короче, хочим в Сочи.
          Am        D 
Мы, короче, очень-очень,
           G
Хочим в Сочи.

Проигрыш: Am D G Em Am D G

e----------------------------------------------
b----------------------------------------------
g----------------------------------------------
d---5-7--5-7----5-9-7-5----5-7-7-7-5-9-7-5-4-5-
a-7-----------7----------7---------------------
e----------------------------------------------
           
Ты не спорь со мною даже
         Em
Пиво тёплое на пляже
        Em
Не заменит мне винища,
              G
Что в Европе каждый нищий
G
Хлещет, сыром заедая,
         Em
Не хочу совсем туда я.
             G
Вот спроси у нашей дочи,
          D            G
Мы короче с ней хочим в Сочи.

Припев:
             Am        D 
Спорить нет с тобою мочи,
           G          Em        
Мы, короче, хочим в Сочи.
          Am        D 
Мы, короче, очень-очень,
         G
Хочим в Сочи.
 
 

Видео