Запрещают песни Цоя, Агата Кристи, Наутилус Помпилиус, Зиверт
Отвечаем в отдельной теме

Ленинград - Ну, погоди, аккорды

Прокрутка
Тональность
Шрифт
100
   Am
А я тебя прошу который год -
Am     Gm
Ну дай ты мне хотя бы, хотя бы в рот
Gm     Am
А ты все крутишь-крутишь-крутишь бигуди
Am   Gm
И говоришь мне: - С еблей погоди!
 
Gm    Am
Ну, погоди-ди-диди-дидиди-ди!
Am    Gm
Ну, погоди-ди-диди-дидиди-ди!
Gm    Am
Ну, погоди-ди-диди-дидиди-ди!
Am    Gm
Ну, погоди, а, е, у, а, о, ы!

Соло.

А я тебе цветов дарил миллион
И был почти, почти в тебя влюблен
А ты все крутишь-крутишь-крутишь бигуди
И говоришь мне: - С еблей погоди!

Ну, погоди-ди-диди-дидиди-ди!
Ну, погоди-ди-диди-дидиди-ди!
Ну, погоди-ди-диди-дидиди-ди!
Ну, погоди, а, е, у, а, о, ы!
Ну, погоди!

Соло.

А я гожу, гожу,
гожу, гожу, гожу
гожу, гожу, гожу!

Соло:
e|--------------------------------
B|--------------------------------
G|--------------------------------
D|-7------------------------------ 2 раза
A|---7--9----7--------------------
E|--------9-----7-9-5-7-8----7----

потом
e|--------------------------------
B|--------------------------------
G|--------------------------------
D|--------------------------------
A|-5------------------------------
E|-3----3-4-5---------------------
 
 

Видео