Les Hearts - People Are Dumb, аккорды новинка

Прокрутка
Тональность
Шрифт
100
Intro:
e------------------------------------
B------------------------------------
G------------------------------------
D------------------------------------
A------------------0h4-4/6-6---6-----
E-2-2-2-6-8^10-8-------------7---7---

Verse:
e---------------------------------------------------
B---------------------------------------------------
G-----0-------0-------0-------0-------0-------0-----
D---3-------3-------1-------1-------2-------2-------
A-3-------3-------1-------1-------2-------2---------
E-------x-------x-------x-------x-------x-------x---

Chorus:
G5          F#5 G#5
People are dumb
G5                F#5 G#5
Doing without thinking
G5               F#5
Thirst for profit
G#5
Take over the world

Solo:
e-4-6-5-6-4-6-5-6-----------------------------------
B-----------------------------------------8-5-3-1---
G-----------------------------4-6/8-8---8-----------
D-------------------------0-4---------9-------------
A---------------------4-6---------------------------
E-----------------0-6-------------------------------

Комментарий автора:

В припеве бой "Шестерка"

h - Hammer on
^ - Bend
/ - Slide
 
 
Свернуть Распечатать