Linkin Park - Robot Boy, аккорды

Прокрутка
Тональность
Шрифт
100
Intro

e|-------------------------------------------|
B|-------------------------------------------|
G|---------------0---------------------------|
D|-3-2-0-----0-2---3-2-0-0-2-----------------|
A|-------3-3-----------------0-00-00-00------|
E|-------------------------------------------|

That is actually played throughout the whole song but i just play until the lyrics kick
then play this.

e|---0----0----3----2----0----0----0----0----|
B|---1----1----3----3----1----1----1----1----|
G|---2----0----0----2----2----2----2----2----|
D|33-3----2----0-00-0----2----2----2----2----|
A|-----33-3----2------00-0-00-0-00-0-00-0----|
E|----------33-3-----------------------------|

Thats played till the end,you'll have to figure out the strumming pattern by your self
:p

Lyrics

You say your not gonna fight
cause no one will fight for you
And you think theres not enough love
and no one to give it to
And your sure youve hurt for so long
youve got nothing left to lose
So you say your not gonna fight
cause no one will fight for you
You saythe weight of the world
has kept you from letting Go
And you think compassions a fault
and youll never let it show
And your sure you have hurt in a way
that no one will ever know
But some day the weight of the world
will give you the strength to Go
 
 

Видео