Linkin Park - What I've Done, аккорды

Прокрутка
Тональность
Шрифт
100
e|-----------------|-----------------|
B|---3---3-4-3---3-|---3---3-4-3---3-|
G|-0---0-------0---|-0---0-------0---|
D|-----------------|-----------------|
A|-----------------|-----------------|
E|-----------------|-----------------|

e|-----------------|-----------------|-----------------|-----------------|
B|---3---3-4-3---3-|---3---3-4-3---3-|---3---3-4-3---3-|---3---3-4-3---3-|
G|-0---0-------0---|-0---0-------0---|-0---0-------0---|-0---0-------0---|
D|-----------------|-----------------|-----------------|-----------------|
A|-----------------|-1---------------|-----------------|-3---------------|
E|-3---------------|-----------------|-1---------------|-----------------|

e|-----------------|-----------------|-----------------|-----------------|
B|---3---3-4-3---3-|---3---3-4-3---3-|---3---3-4-3---3-|---3---3-4-3---3-|
G|-0---0-------0---|-0---0-------0---|-0---0-------0---|-0---0-------0---|
D|-----------------|-----------------|-----------------|-----------------|
A|-----------------|-1---------------|-----------------|-3---------------|
E|-3---------------|-----------------|-1---------------|-----------------|
 
 

Видео