Linkin Park - Hands Held High, аккорды

Прокрутка
Тональность
Шрифт
100
              x7                                  x1
-5-----5-----5------------------------7-----7-----7-------|
---5-5---5-5---5------------------------5-5---5-5---5-----|
----------------------------------------------------------|
----------------------------------------------------------|
----------------------------------------------------------|
----------------------------------------------------------|
played throught till prechorus
////////////////////////////

played at 1:00min you will see :)
--5-----5-----5----7-----7-----7----5-----5-----5-----4-----4----4----|
----5-5---5-5---5----5-5---5-5---5----5-5---5-5---5-5---5-5---5-5--5--|
----------------------------------------------------------------------|
----------------------------------------------------------------------|
----------------------------------------------------------------------|
----------------------------------------------------------------------|
 
 

Видео