Linkin Park - Keys To The Kingdom, аккорды

Прокрутка
Тональность
Шрифт
100
Intro 4x
e|-11-11-11-----11-11-11----|
B|-x--x--x-------x--x--x----|
G|-9--9--9------9--9--9-----|
D|--------------------------|
A|--------------------------|
D|--------------------------|
No control,     no surprise 

Guitar intro
2x
e|-----------------|-----------------|-----------------|-----------------|
B|-----------------|-----------------|-----------------|-----------------|
G|-----------------|-----------------|-----------------|-----------------|
D|-2---2-2-2-2-5---|-5---5-4-0-------|-2---2-2-2-2-5---|-5---5-0---------|
A|-2---2-2-2-2-5---|-5---5-4-0-------|-2---2-2-2-2-5---|-5---5-0---------|
D|-2---2-2-2-2-5---|-5---5-4-0-------|-2---2-2-2-2-5---|-5---5-0---------|

1x
e|-----------------|-----------------|-----------------|-----------------|
B|-----------------|-----------------|-----------------|-----------------|
G|-----------------|-----------------|-----------------|-----------------|
D|-2-2-2-2-2-2-5-5-|-5-5-5-4-0-------|-2-2-2-2-2-2-5-5-|-5-5-5-0---------|
A|-2-2-2-2-2-2-5-5-|-5-5-5-4-0-------|-2-2-2-2-2-2-5-5-|-5-5-5-0---------|
D|-2-2-2-2-2-2-5-5-|-5-5-5-4-0-------|-2-2-2-2-2-2-5-5-|-5-5-5-0---------|

1x
e|-----------------|-----------------|-----------------|-----------------|
B|-----------------|-----------------|-----------------|-----------------|
G|-----------------|-----------------|-----------------|-----------------|
D|-2-2-2-2-2-2-5-5-|-5-5-5-4-0-------|-2-2-2-2-2-2-5-5-|-5-5-----x-x-x-x-|
A|-2-2-2-2-2-2-5-5-|-5-5-5-4-0-------|-2-2-2-2-2-2-5-5-|-5-5-----x-x-x-x-|
D|-2-2-2-2-2-2-5-5-|-5-5-5-4-0-------|-2-2-2-2-2-2-5-5-|-5-5-----x-x-x-x-|

1x
e|-----------------|-----------------|-----------------|-----------------|
B|-----------------|-----------------|-----------------|-----------------|
G|-----------------|-----------------|-----------------|-----------------|
D|-2-2---------2-2-|---------2-2-2-2-|-2-2---------2-2-|---------2-2-2-2-|
A|-2-2---------2-2-|---------2-2-2-2-|-2-2---------2-2-|---------2-2-2-2-|
D|-2-2---------2-2-|---------2-2-2-2-|-2-2---------2-2-|---------2-2-2-2-|

Verse
Rest for two lines, then
e|-----------------|-----------------|-----------------|-----------------|
B|-----------------|-----------------|-----------------|-----------------|
G|-----------------|-----------------|-----------------|-----------------|
D|-2-2---------2-2-|---------2-2-2-2-|-2-2---------2-2-|---------2-2-2-2-|
A|-2-2---------2-2-|---------2-2-2-2-|-2-2---------2-2-|---------2-2-2-2-|
D|-2-2---------2-2-|---------2-2-2-2-|-2-2---------2-2-|---------2-2-2-2-|
  ..hand     or  fist..

Chorus: same as the guitar intro

Rapping (same as the verse)

Chorus again;

Arpeggio 8x
e|-----------------|-----------------|
B|-------------12--|-----------------|
G|-----9-----------|-------11~-------|
D|-9-------9-------|--------9~-------|
A|-----------------|-----------------|
D|-----------------|-----------------|

Solo (starts about at the 6th arpeggio)
Tremolo picking, a little dirty (pretty hard to tab)
Play twice each note

e|-----------------|-----------------|-----------------|-----------------|
B|-----------------|-----------------|-----------------|-----------------|
G|-----------------|-----------------|-----------------|-----------------|
D|-----------------|---------7-7-7-7-|-7-7-7-7-9-9-9-9-|-9-9-9-9-12121212|
A|-7-7-7-7-9-9-9-9-|-10101010--------|-----------------|-----------------|
D|-----------------|-----------------|-----------------|-----------------|

e|-----------------|
B|-----------------|
G|-----------------|
D|-1212121212121212|
A|-----------------|
D|-----------------|

e|-----------------|-----------------|-----------------|-----------------|
B|-----------------|-----------------|-----------------|-----------------|
G|-----------------|-----------------|-----------------|-----------------|
D|-141414141414----|-1414----12121616|-1717171616161414|-14121212--------|
A|-------------1414|-----1414--------|-----------------|---------14141212|
D|-----------------|-----------------|-----------------|-----------------|

e|-----------------|-----------------|-----------------|-----------------|
B|-----------------|-----------------|-----------------|-----------------|
G|-----------------|-----------------|-----------------|-----------------|
D|-------121212----|-------|-----1212|-1414141414141414|-----------------|
A|-141414------1414|-141212121414----|-----------------|-1414141414141414|
D|-----------------|-----------------|-----------------|-----------------|

e|-----------------|-----------------|-----------------|-----------------|
B|-----------------|-----------------|-----------------|-----------------|
G|-----------------|-----------------|-----------------|-----------------|
D|-1414141416161616|-1717171717171717|-1616161614141414|-----------------|
A|-----------------|-----------------|-----------------|-1414141414141414|
D|-----------------|-----------------|-----------------|-----------------|
   ohh     ohh       ohhhhh            ohh     ohh       ohhh    ohhh

e|-----------------|-----------------|-----------------|-----------------|
B|-----------------|-----------------|-----------------|-----------------|
G|-----------------|-----------------|-----------------|-----------------|
D|-1414141416161616|-1717171717171717|-1414141414141414|-1717171717171717|
A|-----------------|-----------------|-----------------|-----------------|
D|-----------------|-----------------|-----------------|-----------------|
   ohh     ohh       ohhhhh            ohh     ohh       ohhh    ohhh

e|-----------------|-----------------|-----------------|-----------------|
B|-----------------|-----------------|-----------------|-----------------|
G|-----------------|-----------------|-----------------|-----------------|
D|---(some guitar half-random notes)-|-----------------|-----------------|
A|-----------------|-----------------|-----------------|-----------------|
D|-----------------|-----------------|-----------------|-----------------|
   No control    no surprise

e|-----------------|-----------------|-----------------|-----------------|
B|-----------------|-----------------|-----------------|-----------------|
G|-----------------|-----------------|-----------------|-----------------|
D|-2-2-x-x-x-x-2-2-|-x-x-x-x-2-2-2-2-|-2-2-x-x-x-x-2-2-|-x-x-x-x-2-2-2-2-|
A|-2-2-x-x-x-x-2-2-|-x-x-x-x-2-2-2-2-|-2-2-x-x-x-x-2-2-|-x-x-x-x-2-2-2-2-|
D|-2-2-x-x-x-x-2-2-|-x-x-x-x-2-2-2-2-|-2-2-x-x-x-x-2-2-|-x-x-x-x-2-2-2-2-|
   I'm my own       casualty

e|-----------------|-----------------|-----------------|-----------------|
B|-----------------|-----------------|-----------------|-----------------|
G|-----------------|-----------------|-----------------|-----------------|
D|-2-2-x-x-x-x-2-2-|-x-x-x-x-2-2-2-2-|-2-2---------2-2-|-----------------|
A|-2-2-x-x-x-x-2-2-|-x-x-x-x-2-2-2-2-|-2-2---------2-2-|-----------------|
D|-2-2-x-x-x-x-2-2-|-x-x-x-x-2-2-2-2-|-2-2---------2-2-|-----------------|
 
 

Видео