Linkin Park - Iridescent, аккорды

Прокрутка
Тональность
Шрифт
100
Intro (slow and emotinal) :
e|----------------------|
B|----------------------|
G|----------------------| x4
D|----7-7-7-7--3-3-3-3--|
A|----7-7-7-7--3-3-3-3--|
E|----5-5-5-5--1-1-1-3--|

Verse (part 1):
e|----------------------------------------------|
B|----------------------------------------------|
G|----5-----------------------------------------|
D|----5-let it ring-------3----let it ring------| x2
A|----3-------------------3---------------------|
E|------------------------1---------------------|

Verse (part 2):
e|----------------------------------------------------------|
B|----------------------------------------------------------|
G|----------------------------------------------------------|
D|----7------------------3--------------7--7-7-7---5-5-5-5--|
A|----7-let it ring------3--let it ring-7--7-7-7---5-5-5-5--|
E|----5------------------1--------------5--5-5-5---3-3-3-3--|

Chours:
e|----------------------------------------------------------------------------|
B|----------------------------------------------------------------------------|
G|----5--------------------5---------------------5----------------------------|
D|----5-----3----7-----5---5-x3--3----7------5---5-x3---3--7-7-5-5--3----5----|
A|----3-x3--3----7-x3--5---3-----3----7-x3---5---3------3--7-7-5-5--3-x4-5----| x4
E|----------1----5-----3---------1----5------3----------1--5-5-3-3--1----3----|
...cold... desporation hopes... known... all... go...

Verse 2 :
e|----------------------------------------------------------|
B|----------------------------------------------------------|
G|----------------------------------------------------------|
D|----7------------------3--------------7--7-7-7---5-5-5-5--|
A|----7-let it ring------3--let it ring-7--7-7-7---5-5-5-5--|
E|----5------------------1--------------5--5-5-5---3-3-3-3--|

Chours 2 :
e|----------------------------------------------------------------------------|
B|----------------------------------------------------------------------------|
G|----5--------------------5---------------------5----------------------------|
D|----5-----3----7-----5---5-x3--3----7------5---5-x3---3--7-7-5-5--3----5----|
A|----3-x3--3----7-x3--5---3-----3----7-x3---5---3------3--7-7-5-5--3-x4-5----| x4
E|----------1----5-----3---------1----5------3----------1--5-5-3-3--1----3----|
...cold... desporation hopes... known... all... go...

Bridge + final Chours:
Solo Gutiar:
e|-------------3-----------1-----------1-----0---------------------|
B|----1-1-1-1--1--1-1-1-1--1--1-1-1-1--1--1--1---1-1-1-1--0-0-0-0--|
G|----0-0-0-0--0--0-0-0-0--0--0-0-0-0--0--0--0---2-2-2-2--0-0-0-0--|
D|-----------------------------------------------------------------|
A|-----------------------------------------------------------------|
E|-----------------------------------------------------------------|

Only guitar: x2
e|------------------------|
B|------------------------|
G|------------------------|
D|---10-----7------5------|   not sure about the times of each one.
A|---10-x18-7x12---5-x8---|    figuer out your self :)
E|----8-----5------3------|

Then vocals:
e|------------------------------|
B|------------------------------|
G|------------------------------|
D|---10-----7------5------------| x2
A|---10-x18-7x12---5-x8---------|
E|----8-----5------3------------|
feel..cold

3nd time:
e|----------------------------------------|
B|----------------------------------------|
G|----------------------------------------|
D|---10-----7------5--------3------5------|
A|---10-x18-7x12---5-x8-----3-x12--5--x12-|
E|----8-----5------3--------1------3------|
......all...................go.....ohh...
 
 

Видео