Linkin Park - Easier To Run, аккорды

Прокрутка
Тональность
Шрифт
100
 Intro: 
 E|-------------------| 
 B|-5-7-8~-8-10-8-7~~-|  x4 
 G|-------------------| 
 D|-------------------| 
 A|-------------------| 
 E|-------------------| 
 
Intro,Chorus (Guitar with distortion):
   Em Cm Dm Hm 
 E|-7--8--10-7-| 
 B|-7--8--10-7-| 
 G|-9--8--10-7-| 
 D|-9--10-12-9-| 
 A|-7--10-12-9-| 
 E|-7--8--10-7-| 
 
вообще в куплете гитары я не слышал - но по теме можете играть 
вступление без дисторшена 
 
и где-то на 2.18 минуте песни примерно это (interlude):
   Cm  Dm Em Bm 
 E|-8--10-7--7-| 
 B|-8--10-7--7-| 
 G|-8--10-9--7-| 
 D|-10-12-9--9-| 
 A|-10-12-7--9-| 
 E|-8--10-7--7-|
 
 

Видео