Linkin Park - My December, аккорды

Прокрутка
Тональность
Шрифт
100
Повторяется всю песню: 
E|------------------------------------------------| 
B|------------------------------------------------| 
G|------------------------------------------------| 
D|---4-3-4--------4-3-4--------4-3-4--------4-3-4-| 
A|-6------------6------------4------------4-------| 
E|------------------------------------------------| 
 
Примерно в 0:15-0:19; 1:00-1:15: 
E|-----------------------------| 
B|-5-5-3-5-8---------5-5-3-5-7-| 
G|-----------------------------| 
D|-----------------------------| 
A|-----------------------------| 
E|-----------------------------| 
 
Give it all away... 
E|-----------------------------------| 
B|-----------------------------------| 
G|-5-5-5------------5-5-5-----7-7----| 
D|-------5-4--------------5-4-----78-| 
A|-----------------------------------| 
E|-----------------------------------|
 
 

Видео