Linkin Park - Numb, аккорды

Прокрутка
Тональность
Шрифт
100
Intro / Chorus (distortion) / Куплет: 
   Gm  D#m A#m Fm 
 E|--3--6--6---8--| 
 B|--3--6--6---8--| 
 G|--3--8--6---10-| 
 D|--5--8--8---10-| 
 A|--5--6--8---8--| 
 E|--3--6--6---8--| 
 
Pre-Chorus 1:
    D#m F#m Gm A#m  D#m F#m 
 E|--6--8---3--6-----6---8--| 
 B|--6--8---3--6-----6---8--| 
 G|--8--10--3--6-----6---8--| 
 D|--8--10--5--8-----8---10-| 
 A|--6--8---5--8-----8---10-| 
 E|--6--8---3--6-----6---8--| 
 
Pre-Chorus 2:
    D#m F#m Gm A#m x2 
 E|--6--8---3---6-| 
 B|--6--8---3---6-| 
 G|--8--10--3---6-| 
 D|--8--10--5---8-| 
 A|--6--8---5---8-| 
 E|--6--8---3---6-| 
 
После 2-го припева: 
    D#m F#m Gm Am A#m Cm    D#m F#m D 
 E|-6---8---3--5--6---8-----6---8---10-| 
 B|-6---8---3--5--6---8-----6---8---10-| 
 G|-8---10--3--5--6---8-----8---10--10-| 
 D|-8---10--5--7--8---10----8---10--12-| 
 A|-6---8 --5--7--8---10----6---8---12-| 
 E|-6---8---3--5--6---8-----6---8---10-| 

Комментарий автора:

Lyrics:

I'm tired of being what you want me to be 
Feeling so faithless lost under the surface 
Don't know what you're expecting of me 
Put under the pressure of walking in your shoes 
(Caught in the undertow just caught in the undertow) 
Every step I take is another mistake to you 
(Caught in the undertow just caught in the undertow) 
 
Chorus:
I've become so numb I can't feel you there 
I've become so tired so much more aware 
I've becoming this all I want to do 
Is be more like me and be less like you 
 
Can't you see that you're smothering me 
Holding too tightly afraid to lose control 
Cause everything that you thought I would be 
Has fallen apart right in front of you 
(Caught in the undertow just caught in the undertow) 
Every step that I take is another mistake to you 
(Caught in the undertow just caught in the undertow) 
And every second I waste is more than I can take 
 
Chorus:
I've become so numb I can't feel you there 
I've become so tired so much more aware 
I've becoming this all I want to do 
Is be more like me and be less like you 
 
And I know 
I may end up failing too 
But I know 
You were just like me with someone disappointed in you 
 
Chorus:
I've become so numb I can't feel you there 
I've become so tired so much more aware 
I've becoming this all I want to do 
Is be more like me and be less like you 
 
Chorus:
I've become so numb I can't feel you there 
Is everything what you want me to be 
I've become so numb I can't feel you there 
Is everything what you want me to be
 
 

Видео