Linkin Park - Pushing Me Away, аккорды

Прокрутка
Тональность
Шрифт
100
Intro 1: (акустика)
1|-12-10----0--15-14-12--------------------12--14-15--
2|-------12-------------12-10--15-12--8-10------------

Intro 2:
  Em Cm D Gm Am Bm
1|-0--3-5-3--5--7--
2|-0--3-5-3--5--7--
3|-0--5-7-3--5--7--
4|-2--5-7-5--7--9--
5|-2--3-5-5--7--9--
6|-0--3-5-3--5--7--

Verse = Intro 1:
1|-12-10----0--15-14-12--------------------12--14-15--
2|-------12-------------12-10--15-12--8-10------------

Pre-Chorus:
   Cm D Am Gm
1|--3-5-5--3--
2|--3-5-5--3--
3|--5-7-5--3--
4|--5-7-7--5--
5|--3-5-7--5--
6|--3-5-5--3--

Chorus:
  Em Cm Gm Am Bm
1|-0--3-3--5--7--
2|-0--3-3--5--7--
3|-0--5-3--5--7--
4|-2--5-5--7--9--
5|-2--3-5--7--9--
6|-0--3-3--5--7--

Комментарий автора:

Lyrics:

I´ve lied to you
The same way that I always do
This is the last smile
That I´ll fake for the sake of being with you

Pre chorus:
(Everything falls apart, even the people 
who never frown eventually break down)
The sacrifice of hiding in a lie
(Everything has to end, you´ll soon find 
we´re out of time left to watch it all unwind)
The sacrifice is never knowing

Why I never walked away
Why I played myself this way
Now I see your testing me pushes me away

I´ve tried like you
To do everything you wanted too
This is the last time
I´ll take the blame for the sake of being with you

Pre chorus
Chorus (2x)

We´re all out of time, this is how we find how it all unwinds
The sacrifice of hiding in a lie
We´re all out of time, this is how we find how it all unwinds
The sacrifice is never knowing

Chorus (2x)

Pushes me away...(2x)
 
 

Видео