Linkin Park - And One, аккорды

Прокрутка
Тональность
Шрифт
100
And One
Tuning: Dropped D one half step down
C# G# C# F# A# D#

Intro/Verse: x4
x|--------------------------------------------------------------------------|x
x|--------------------------------------------------------------------------|x
x|--------------------------------------------------------------------------|x
x|--------------------------------------------------------------------------|x
x|---------------*7---------------*12---------------*7----------------------|x
x|-00-0-088-8-88----00-0-088-8-88-----00-0-088-8-88----00-0-088-8-88--------|x

Chorus
x|--------------------------------------------------------------------------|x
x|--------------------------------------------------------------------------|x
x|----------------------10--10-10-1010--------------------------------------|x
x|-0--0-00--0-0-008--8-810--10-10-1010--3--3-33--3-3-33--1--1-11--1-1-11--|x
x|-0--0-00--0-0-008--8-88---8--8--8-8---3--3-33--3-3-33--1--1-11--1-1-11--|x
x|-0--0-00--0-0-008--8-88---8--8--8-8---3--3-33--3-3-33--1--1-11--1-1-11--|x

Bridge:
x|--------------------------------------------------------------------------|x
x|--------6---5-----------3---1---------------------------------------------|x
x|-------------------------------------------0------------------0-----------|x
x|-0----0---0---0---0---3---3---3---3-----3-----3---3-------2-----2---2-----|x
x|-0--------------0---1-----------1-----3---3-----3-------3---3-----3-------|x
x|-0--0-------------------------------3-----------------2-------------------|x