Linkin Park - Carousel, аккорды

Прокрутка
Тональность
Шрифт
100
Carousel
Tuning: Dropped D one half step down
C# G# C# F# A# D#

Intro:(x2)
x|--------------------------------------------------------------------------|x
x|--------------------------------------------------------------------------|x
x|-1--4--1--2---------------------------------------------------------------|x
x|-------------3------------------------------------------------------------|x
x|--------------------------------------------------------------------------|x
x|--------------------------------------------------------------------------|x

Verse:(x12)
x|--------------------------------------------------------------------------|x
x|--------------------------------------------------------------------------|x
x|----5-4-------------------------------------------------------------------|x
x|-2------3-2---------------------------------------------------------------|x
x|--------------------------------------------------------------------------|x
x|--------------------------------------------------------------------------|x

Chorus:(x4)
x|--------------------------------------------------------------------------|x
x|--------------------------------------------------------------------------|x
x|--------------------------------------------------------------------------|x
x|-22-22---33-33------------------------------------------------------------|x
x|-22-22---33-33------------------------------------------------------------|x
x|-22-22---33-33------------------------------------------------------------|x

Bridge(x4)
x|--------------------------------------------------------------------------|x
x|--------------------------------------------------------------------------|x
x|-(1)----(4)----(1)----(2)-------------------------------------------------|x
x|-22-22--22-22--22-22--22-22-(3)-------------------------------------------|x
x|-22-22--22-22--22-22--22-22-----------------------------------------------|x
x|-22-22--22-22--22-22--22-22-----------------------------------------------|x