Linkin Park - Crawling, аккорды

Прокрутка
Тональность
Шрифт
100
Drop D Tuning, down 1/2 step

Intro:
Eb----19--16-----------------
Bb------------19--17--16--17-
Gb-18------------------------
Db---------------------------
Ab---------------------------
Db---------------------------

Chorus: Rhythm Guitar + Massive Distortion
Eb----------------------------
Bb----------------------------
Gb----------------------------
Db-0-----8-----3-----10-----7-
Ab-0-----8-----3-----10-----7-
Db-0-----8-----3-----10-----7-

Chorus: Played with Rythem Guitar + Massive Distortion
Eb------------------------------
Bb------------------------------
Gb-11-----5------10------9---12-
Db-X------X------X-------X---X--
Ab-9------3------8-------7---10-
Db------------------------------
 
 

Видео