Linkin Park - Crawling, аккорды

Прокрутка
Тональность
Шрифт
100
Tunning [DbAbDbGbBbEb] Drop D

Intro:
|--------------|---20----17--|-------------------------------|
|--------------|-------------|-20----18----17----18----------|
|----------19--|-------------|------------------------19-----|
|--------------|-------------|-------------------------------|
|--------------|-------------|-------------------------------|
|--------------|-------------|-------------------------------|
|Bass:                                                       |
|--------------|-------------|-------------------------------|
|-----------3--|------------3|-------------------------------|
|-1------------|-------------|-----5-----------------3-------|
|--------------|-3-----------|-------------------------------| 

Right before the chorus guitar 1 plays:
|-----------------------|
|-----------------------|
|-----------------------|
|--10----10-10-m-10-----|
|-----------------------|
|-----------------------|

Chorus:
Guitar 1:
 D5               Bb5              F5               C5          A5 
|----------------|----------------|----------------|---------------|
|----------------|----------------|----------------|---------------|
|-11--11--11--11-|-5---5---5---5--|-10--10--10--10-|-9---9---9--12-|
|-x---x---x---x--|-x---x---x---x--|-x---x---x---x--|-x---x---x--x--|                            
|-9---9---9---9--|-3---3---3---3--|-8---8---8---8--|-7---7---7--10-|
|----------------|----------------|----------------|---------------| 
|note: strum each note 16 times                                    |                            
|Guitar 2:                                                         | 
|----------------|----------------|----------------|---------------|
|----------------|----------------|----------------|---------------|
|----------------|----------------|----------------|---------------|
|-0--------------|-8--------------|-3--------------|-10----------7-|
|-0--------------|-8--------------|-3--------------|-10----------7-|
|-0--------------|-8--------------|-3--------------|-10----------7-| 
        Crawling in my   skin     these wounds they will not heal
        Fer is how I     fall        confusing     what is real

Play intro again.

Verse:  
Bass:   
 D5               Bb5              F5               C5
|----------------|----------------|----------------|---------------|
|----------------|----------------|----------------|---------------|
|----------------|----------------|----------------|---------------|
|-0--------------|-1--------------|-3--------------|-3-------------| 

 D5                              Bb5                       
Theres something inside me that pulls beneath the surface,      
F5           C5 
Consuming, confusing
 D5                        Bb5                       
This lack of selfcontrol I fear is never ending,          
F5           C5 
Controlling I cant seem

Pre Chorus: (still just bass)
  Bb5               C5              D5        C5     F5
|-----------------|----------------|----------------|---------------|
|----------3------|----------3-----|----------------|---------------|
|-1---------------|-3--------------|-5--------3-----|---------0-----|
|-----------------|----------------|----------------|-3-------------|       
to find myself again        my walls are closing in 

Bb5               C5              D5        C5     F5
|-----------------|----------------|----------------|---------------|
|----------3------|----------3-----|----------------|---------------|
|-1---------------|-3--------------|-5--------3-----|---------------|
|-----------------|----------------|----------------|-3----3/7-7-7--|       
I've felt this way before so insecure...

Chorus:
Guita 1:
D5               Bb5              F5               C5          A5 
|----------------|----------------|----------------|---------------|
|----------------|----------------|----------------|---------------|
|-11--11--11--11-|-5---5---5---5--|-10--10--10--10-|-9---9---9--12-|
|-x---x---x---x--|-x---x---x---x--|-x---x---x---x--|-x---x---x--x--|
|-9---9---9---9--|-3---3---3---3--|-8---8---8---8--|-7---7---7--10-|
|----------------|----------------|----------------|---------------| 
|note: strum fast in 16th notes (each note 16 times)               | 
|                                                                  | 
|Guitar 2:                                                         | 
|----------------|----------------|----------------|---------------|
|----------------|----------------|----------------|---------------|
|----------------|----------------|----------------|---------------|
|-0--------------|-8--------------|-3--------------|-10----------7-|
|-0--------------|-8--------------|-3--------------|-10----------7-|
|-0--------------|-8--------------|-3--------------|-10----------7-| 
        Crawling in my   skin     these wounds they will not heal
        Fer is how I     fall        confusing     what is real

Verse 2 = Verse 1

Pre-Chorus:
  Bb5               C5              D5        C5     F5
|-----------------|----------------|----------------|---------------|
|----------3------|----------3-----|----------------|---------------|
|-1---------------|-3--------------|-5--------3-----|---------0-----|
|-----------------|----------------|----------------|-3-------------|      
 to find myself again        my walls are closing in

 Bb5               C5              D5        C5     F5
|-----------------|----------------|----------------|---------------|
|----------3------|----------3-----|----------------|---------------|
|-1---------------|-3--------------|-5--------3-----|---------------|
|-----------------|----------------|----------------|-3----3/7-7-7--|       
I've felt this way before so insecure...

Play Chorus x2

The outro is the chorus with the intro over it
 
 

Видео