Linkin Park - Crawling, аккорды

Прокрутка
Тональность
Шрифт
100
Intro:
G:-----------------
D:---2---2---------
A:0---2---4---2----
D:---------------2-

Chorus:
G:-------------
D:-------------
A:---0-------2-
D:0------2-----

Verse:
G:------------
D:------------
A:---0------2-
D:0-----2-----

Fill:
G:--------------------------
D:-----2-------2------------
A:0-------2-------4----2----
D:------------------------2-

Song Order:

Intro x1
Chorus x2
Verse x3
Fill x2
Chorus x2
Verse x2
Fill x2
Chorus x6
 
 

Видео