Linkin Park - Don't Stay, аккорды

Прокрутка
Тональность
Шрифт
100
Verse Version 1:
Db------------------------
Ab------------------------
E------------------------- x11
B--0-0-0-7--3--5-5-5-8--7-
Gb-0-0-0-7--3--5-5-5-8--7-
B--0-0-0-7--3--5-5-5-8--7-

Verse Version 2:
Db--------------------------
Ab--------------------------
E--------------------------- x1
B--0-0-0-7--3--1-1-1-x-x-x--
Gb-0-0-0-7--3--1-1-1-x-x-x--
B--0-0-0-7--3--1-1-1-x-x-x--

Verse Version 1:
Db------------------------
Ab------------------------
E------------------------- x3
B--0-0-0-7--3--5-5-5-8--7-
Gb-0-0-0-7--3--5-5-5-8--7-
B--0-0-0-7--3--5-5-5-8--7-

Verse Version 2:
Db------------------------
Ab------------------------
E------------------------- x1
B--0-0-0-7--3--1-1-1-x-x-x-
Gb-0-0-0-7--3--1-1-1-x-x-x-
B--0-0-0-7--3--1-1-1-x-x-x-

Chorus Part 1:
Db------------------------
Ab------------------------
E------------------------- x4
B--0---7--8--10-5---7-3-1-
Gb-0---7--8--10-5---7-3-1-
B--0---7--8--10-5---7-3-1-

Chorus Part 2:
Db------------------------
Ab------------------------
E------------------------- x5
B--0-0-0-7--3--5-5-5-8--7-
Gb-0-0-0-7--3--5-5-5-8--7-
B--0-0-0-7--3--5-5-5-8--7-

Verse Version 1:
Db------------------------
Ab------------------------
E------------------------- x3
B--0-0-0-7--3--5-5-5-8--7-
Gb-0-0-0-7--3--5-5-5-8--7-
B--0-0-0-7--3--5-5-5-8--7-

Verse Version 2:
Db-------------------------
Ab-------------------------
E-------------------------- x1
B--0-0-0-7--3--1-1-1-x-x-x-
Gb-0-0-0-7--3--1-1-1-x-x-x-
B--0-0-0-7--3--1-1-1-x-x-x-

Filler:
Db-------------
Ab-------------
E-------------- x1
B--1-1--1-1-1--
Gb-1-1--1-1-1--
B--1-1--1-1-1--

Chorus Part 1:
Db-------------------------
Ab-------------------------
E-------------------------- x4
B--0---7--8--10-5---7-3-1--
Gb-0---7--8--10-5---7-3-1--
B--0---7--8--10-5---7-3-1--

Chorus Part 2:
Db------------------------
Ab------------------------
E------------------------- x3
B--0-0-0-7--3--5-5-5-8--7-
Gb-0-0-0-7--3--5-5-5-8--7-
B--0-0-0-7--3--5-5-5-8--7-

Chorus Part 3:
Db-------------------
Ab-------------------
E-------------------- x1
B--0-0-0-7--3--5-5-5-
Gb-0-0-0-7--3--5-5-5-
B--0-0-0-7--3--5-5-5-

Breakdown 1:
Db---------------------
Ab---------------------
E---------------5-/-8- x3
B--0-0-0-1-1-0---------
Gb-0-0-0-1-1-0---------
B--0-0-0-1-1-0---------

Breakdown 2:
Db-----------------
Ab-----------------
E---------------5b- x1
B--0-0-0-1-1-0-----
Gb-0-0-0-1-1-0-----
B--0-0-0-1-1-0-----

Breakdown 1:
Db---------------------
Ab---------------------
E---------------5-/-8- x3
B--0-0-0-1-1-0---------
Gb-0-0-0-1-1-0---------
B--0-0-0-1-1-0---------

Breakdown 3:
Db-----------------------------------------------------
Ab-----------------------------------------------------
E------------------------------------------------------ x3
B--0-0-0-1-1-0--1-1-1-xxx-1-1-1-xxx-1-1-1-xxx-11111111-
Gb-0-0-0-1-1-0--1-1-1-xxx-1-1-1-xxx-1-1-1-xxx-11111111-
B--0-0-0-1-1-0--1-1-1-xxx-1-1-1-xxx-1-1-1-xxx-11111111-

Chorus Part 1:
Db------------------------
Ab------------------------
E------------------------- x4
B--0---7--8--10-5---7-3-1-
Gb-0---7--8--10-5---7-3-1-
B--0---7--8--10-5---7-3-1-

Verse Version 1:
Db------------------------
Ab------------------------
E------------------------- x3
B--0-0-0-7--3--5-5-5-8--7-
Gb-0-0-0-7--3--5-5-5-8--7-
B--0-0-0-7--3--5-5-5-8--7-

Verse Version 2:
Db------------------------
Ab------------------------
E------------------------- x1
B--0-0-0-7--3--1-1-1-x-x-x-
Gb-0-0-0-7--3--1-1-1-x-x-x-
B--0-0-0-7--3--1-1-1-x-x-x-

Комментарий автора:

| /  slide up
| b  Bend
| x  Mute note
 
 

Видео