Linkin Park - Enth E Nd, аккорды

Прокрутка
Тональность
Шрифт
100
 Riff 1 (Intro/Outro)       Riff 2 (Main Riff)                                
e-------------------------|-----------------------
B-------------------------|-----------------------
G-------------------------|-----------------------
D--66---4-4---*22--4*4*4*4|-*66---4-4---*22--4--4-
A-------------------------|-----------------------
E--44---2-2---*00--2*2*2*2|-*44---2-2---*00--2--2-

 Fill 1 (0:27)&(1:22)    Fill 2 (1:40) (2:26) (3:30)                            
-----------------------|-------------------------
-----------------------|-------------------------
--rr---4-4---*22--4--4-|-*6-6---4-4---*22--4--4--
-----------------------|-------------------------
--rr---2-2---*00--2--2-|-*4-4---2-2---*00--2--2--

 Fill 3 (1:50)          Fill 4 (2:35)            
----------------------|---------------------
----------------------|---------------------
-*66---4-4--*22---4*4-|---6-----4-----2---4-
----------------------|---------------------
-*44---2-2--*00---2*2-|---4-----2-----0---2-
                                  
Fill 5  (3:39)
-------------------------|
-------------------------|
---6--6---4-4--*22--4--4-|
-------------------------|
--*4--4---2-2--*00--2--2-|

Комментарий автора:

Layout:
Intro: Riff 1 (1x) then Riff 2 (2x)
Verse 1: Fill 1 (1x) Riff 2 (3x)
Chorus: Riff 2 (2x)
Verse 2: (Motion Man): Fill 1 (1x) Riff 2 (1x) 
          Fill 2 (1x) Riff 2 (1x) Fill 3 (1x)
Chorus: Riff 2(2x)
Break: Riff 2 (1x) Fill 2(combined with the end of Riff 1) (1x)
Verse 3: Fill 4 (1x) Riff 2 (3x)
Chorus: Riff 2 (2x)
Outro: Fill 2(Slightly alterted Rhythm)(1x) Fill 5 (1x) Riff 1 (1x)
 
 

Видео