Linkin Park - Faint (ver 9), аккорды

Прокрутка
Тональность
Шрифт
100
This song is pretty easy once you have the right tabs which I haven't seen yet.
These are it.  

Intro/Chorus

e----------------------------------------------------------------------------
B----------------------------------------------------------------------------
G----------------2-2-2--9-9--7-7-7---7-7-7--9-9--5-5-5-----------------------
D---(9-9-9-9)----2-2-2--9-9--7-7-7---7-7-7--9-9--5-5-5-----------------------
A---(9-9-9-9)----------------------------------------------------------------
E----------------------------------------------------------------------------
Play this 4 times

Verse

e----------------------------------------------------------------------------
B----------------------------------------------------------------------------
G----------------------------------------------------------------------------
D--7--------------7---------------7-------5-5----7-7-------------------------
A--7--------------7---------------7-------5-5----7-7-------------------------
E----------------------------------------------------------------------------

Bridge

e----------------------------------------------------------------------------
B----------------------------------------------------------------------------
G----------------------------------------------------------------------------
D---0--5--7--5--7--5------0--5--7--5--7--5-----------------------------------
A---0--5--7--5--7--5------0--5--7--5--7--5-----------------------------------
E----------------------------------------------------------------------------
Play this 4 times

This should be it.  This is my first tab so email me on how I did (scud22a@hotmail.com).