Linkin Park - Forgotten, аккорды

Прокрутка
Тональность
Шрифт
100
Title:Forgotten
Tunning:Dropped D one half step down
C# G# C# F# A# D#   

Intro: (x2 times)
x|--------------------------------------------------------------------|x
x|--------------------------------------------------------------------|x
x|--------------------------------------------------------------------|x
x|-3--2--2--2--2--3--2--2----*5--3--2--2--2--2--3--2--2---------------|x
x|-3--2--2--2--2--3--2--2--*5----3--2--2--2--2--3--2--2---------------|x
x|-3--2--2--2--2--3--2--2--------3--2--2--2--2--3--2--2---------------|x   

End with
x|---------------------|x
x|---------------------|x
x|---------------------|x
x|-3-2-2-2--2-3-2/5----|x 
x|-3-2-2-2--2-3-2/5----|x
x|-3-2-2-2--2-3-2/5----|x

Verse:
x|---------------------|x
x|------12-------------|x
x|--------14-----------|x
x|----------14------17-|x