Linkin Park - High Voltage, аккорды

Прокрутка
Тональность
Шрифт
100
High Voltage
Tuning: Dropped D one half step down
C# G# C# F# A# D#

Intro x6
x|--------------------------------------------------------------------------|x
x|--------------------------------------------------------------------------|x
x|--------------------------------------------------------------------------|x
x|--3-3--6--5--4--3---------------------------------------------------------|x
x|--------------------------------------------------------------------------|x
x|--------------------------------------------------------------------------|x

Verse x8
x|--------------------------------------------------------------------------|x
x|--------------------------------------------------------------------------|x
x|--------------------------------------------------------------------------|x
x|--3-3-----1--4--1---------------------------------------------------------|x
x|-------4------------------------------------------------------------------|x
x|--------------------------------------------------------------------------|x    

Chorus x2
x|--------------------------------------------------------------------------|x
x|--------------------------------------------------------------------------|x
x|--------------------------------------------------------------------------|x
x|--3-3--6--5--4--3---------------------------------------------------------|x
x|--------------------------------------------------------------------------|x
x|--------------------------------------------------------------------------|x

Verse
Chorus x2