Linkin Park - High Voltage Remix, аккорды

Прокрутка
Тональность
Шрифт
100
High Voltage(remix)
Tuning: Dropped D one half step down
C# G# C# F# A# D#
This song doesn't use guitar but i tabbed a little part
(background piano part)
x|-----------9--------------------------------------------------------------|X
x|-9--12--11---12--11--9--8--9----------------------------------------------|X
x|--------------------------------------------------------------------------|X
x|--------------------------------------------------------------------------|X
x|--------------------------------------------------------------------------|X
x|--------------------------------------------------------------------------|X

x|--------------------------------------------------------------------------|X
x|9-16--14--16---17--17--16---9-16--14--16--12--12--11------------------------|X
x|--------------------------------------------------------------------------|X
x|--------------------------------------------------------------------------|X
x|--------------------------------------------------------------------------|X
x|--------------------------------------------------------------------------|X

x|---------------------------------15---------------------------------------|X
x|-11--16--12--16--14--16--17--14-------------------------------------------|X
x|--------------------------------------------------------------------------|X
x|--------------------------------------------------------------------------|X
x|--------------------------------------------------------------------------|X