Linkin Park - In The End, аккорды

Прокрутка
Тональность
Шрифт
100
Intro clean:
*harmonic.
1-------------------------|
2-------------------------|
3-------------------------|
4-----3-3-----------------|
5-1-------4-3-3-3---3h4---|
6-------------------------|

Verse: clean harmonics.
1-------7*--------12*-----|
2----7*--------7*---------|
3-5*--------5*------------|
4-------------------------|
5-------------------------|
6-------------------------|

Verse 2: distorted harmonics.
1-------7*--------(12)*---|
2----7*--------7*---------|
3-5*--------5*------------|
4-------------------------|
5-------------------------|
6-------------------------|
(12)*let ring just before the bridge.

Verse 2: distorted.
1----------------------------------------|
2----------------------------------------|
3----------------------------------------|
4-6-6-6-6-6-4-4-4-4-4-4-4-4-4-4-2-2-2-2-2|
5-6-6-6-6-6-4-4-4-4-4-4-4-4-4-4-2-2-2-2-2|
6-6-6-6-6-6-2-2-2-2-2-4-4-4-4-4-2-2-2-2-2|

Bridgeending: clean.
1------------------------|
2------------------------|
3------------------------|
4---3-3------------------|
5-1-----4-3-3-3---3h4----|
6------------------------|

strumed distorted.
1------------------------------------------|
2------------------------------------------|
3------------------------------------------|
4-6-6-6-6-6-4-4-4-4-4-4-4-4-4-4-2-2-2-2-(2)|
5-6-6-6-6-6-4-4-4-4-4-4-4-4-4-4-2-2-2-2-(2)|
6-6-6-6-6-6-2-2-2-2-2-4-4-4-4-4-2-2-2-2-(2)|

Distorted harmonics.
1-------7*---------(12*)-|
2----7*---------7*-------|
3-5*---------5*----------|
4------------------------|
5------------------------|
6------------------------|
(2) (12*) let these notes ring for the ending.

Комментарий автора:

by taybugg.
 
 

Видео