Linkin Park - Lying From You, аккорды

Прокрутка
Тональность
Шрифт
100
Intro:
E|-------|-----------------------|   |------------------------|
B|-------|-----------------------|   |------------------------|
G|-------|-----------------------|x3 |------------------------|
D|-------|-----------------------|   |------------------------|
A|-2222--|--02-1-0-3-2-1-0-0-6---|   |--02-1-0-3-2-1----------| 
D|-2222--|--02-1-0-3-2-1-0-0-6---|   |--02-1-0-3-2-1----------|
   |PM| 

Verse:                       on last last part of Verse
|---------------------------|--------------------------------|
|---------------------------|--------------------------------|
|----------7-7--------------|--7-7-7777----------------------|
|--2-2-----x-x----00-00-----|--x-x-xxxx--0-0-0000------------|
|--2-2-----5-5----00-00-----|--5-5-5555--0-0-0000------------|

Chorus:
|------------------------------------------------------------------|
|------------------------------------------------------------------|
|-----11-11--11-11-11-7-7-7-7-9-9-9-9------------------------------|
|------x--x--x--x--x--x-x-x-x-x-x-x-x--7-7-7777-7------------------|
|-2-2--9--9--9--9--9--5-5-5-5-7-7-7-7--x-x-xxxx-x--0-0-0000-4-0----|
|-2-2----------------------------------5-5-5555-5--0-0-0000-4-0----|
 
 

Видео