Linkin Park - My December, аккорды

Прокрутка
Тональность
Шрифт
100
Piano Intro:
e|-------------------------|
B|-------------------------|
G|-------------------------|
D|------2---0---3---2------| x3
A|----3---2---1---0--------|
E|-------------------------|

Next:
|---------------------|
|---------------------|
|---------------------|
|---------------------| x2
|---------------------|
|----11--10--5--6-----|

|-------------------------|
|-------------------------|
|-------------------------|
|------2---0---3---2------|
|----3---2---1---0--------|
|-------------------------|

|---------------------|
|---------------------|
|---------------------|
|---------------------|
|---------------------|
|----11--10--5--6-----|

|-------------------------|
|-------------------------|
|-------------------------|
|------2---0---3---2------|
|----3---2---1---0--------|
|-------------------------|

|---------------------|
|---------------------|
|---------------------|
|---------------------|
|---------------------|
|----11--10--5--6-----|
 
 

Видео